Artist: Fall Out Boy

Album: From Under the Cork Tree
Track: Dance, Dance (#3)
Tabbed by: Deadlights
Intro is played by drums & bass.
Verse:
(0:20)
e|-----------------|
B|-----------------|
G|-6-4---6-4---7---|
D|-----4-----4---4-|
A|-----------------|
E|-----------------|
PM ...............
"Weighed down with words too overdramatic.."
PreChorus:
(0:29)
e|-----------------|---------------------|
B|-----------------|---------------------|
G|-----------------|---------------------|
D|-----0-0-4-4-2-4-|---------0-0-4-4-2-4-|
A|-2-4-------------|-2-2-4-4-------------|
E|-----------------|---------------------|
"I'm two quarters and a heart down..."
(0:37)
e|-----------------|
B|-----------------|
G|-6-4---6-4---7---|
D|-----4-----4---4-|
A|-----------------|
E|-----------------|
PM .....
*Release palm mute*
Chorus:
(0:39)
e|-------------|
B|-------------|
G|-4--7--------|
D|-4--7--5--4--|
A|-2--5--5--4--|
E|-------3--2--|
"Dance, dance..."
Guitar 1:
(0:56)
e|-----------------|
B|-----------------|
G|-6-4---6-4---7---|
D|-----4-----4---4-|
A|-----------------|

E|-----------------|
PM ...............
Guitar 2:
(0:56)
e|-----------------|
B|-----------------|
G|-------------7---|
D|-----------------|
A|-------------5---|
E|-----------------|
*Hit this A octave every time guitar 1 hits the D note. (7 on G string)*
Second Verse:
(1:05)
e|---|
B|---|
G|-4-|
D|-4-|
A|-2-|
E|---|
"You always fold just.."
Guitar 1:
(1:07)
e|-----------------|
B|-----------------|
G|-6-4---6-4---7---|
D|-----4-----4---4-|
A|-----------------|
E|-----------------|
PM ...............
Guitar 2:
e|-----------------|
B|-----------------|
G|-------------7---|
D|-----------------|
A|-------------5---|
E|-----------------|
"..before you're found out."
PreChorus:
(1:13)
e|-----------------|---------------------|
B|-----------------|---------------------|
G|-----------------|---------------------|
D|-----0-0-4-4-2-4-|---------0-0-4-4-2-4-|
A|-2-4-------------|-2-2-4-4-------------|
E|-----------------|---------------------|
Chorus:
(1:30)
e|-------------|
B|-------------|
G|-4--7--------|

D|-4--7--5--4--|
A|-2--5--5--4--|
E|-------3--2--|
Bridge:
(1:47)
e|-------------------------------------------------|----------|---------|
B|-------------------------------------------------|----------|-11b-11b-|
G|-4-4-4-4-4-4-4-4-6-6-6-6-6-6-6-6-7-7-7-7-7-7-7-7-|-7--9--11-|---------|
D|-4-4-4-4-4-4-4-4-6-6-6-6-6-6-6-6-7-7-7-7-7-7-7-7-|----------|---------|
A|-2-2-2-2-2-2-2-2-4-4-4-4-4-4-4-4-5-5-5-5-5-5-5-5-|-5--7--9--|---------|
E|-------------------------------------------------|----------|---------|
e|-------------------------------------------------|----------|
B|-------------------------------------------------|----------|
G|-4-4-4-4-4-4-4-4-6-6-6-6-6-6-6-6-7-7-7-7-7-7-7-7-|-7--9--11-|
D|-4-4-4-4-4-4-4-4-6-6-6-6-6-6-6-6-7-7-7-7-7-7-7-7-|----------|
A|-2-2-2-2-2-2-2-2-4-4-4-4-4-4-4-4-5-5-5-5-5-5-5-5-|-5--7--9--|
E|-------------------------------------------------|----------|
"Why don't you show me a little bit of spine.."
e|---------------------------------|-----------------------|-------------------------|
B|---------------------------------|----------12-11-1214--|--------------------------|
G|-4-4-4-4-4-4-4-4-6-6-6-6-6-6-6-6-|-7--9--11--------------|--11-11-11-11-11-1111-11-|
D|-4-4-4-4-4-4-4-4-6-6-6-6-6-6-6-6-|----------9--8--9-11--|--------------------------|
A|-2-2-2-2-2-2-2-2-4-4-4-4-4-4-4-4-|-5--7--9---------------|--9--9--9--9--9--9-9--9--|
E|---------------------------------|-----------------------|-------------------------|
"I only want sympathy in the form of..."
Chorus:
(2:15)
e|----------|-------------|
B|----------|-------------|
G|-xxx-x-xx-|-4--7--------|
D|-xxx-x-xx-|-4--7--5--4--|
A|-xxx-x-xx-|-2--5--5--4--|
E|----------|-------3--2--|
Outro:
(2:50)
e|-----------------|
B|-----------------|
G|-6-4---6-4---7---|
D|-----4-----4---4-|
A|-----------------|
E|-----------------|
PM ...............
*Play this 4 times, but end on the D note on the last time (7 on G string)*

Standard Tuning
0:04 Intro - 6x
G|---------------------------------|
D|---------------------------------|
A|--2--2-5~-5---------5~-5---------|
E|-----------55--3--3-----55-------|
Pre Chorus - 2x
G|---------------------------------|
D|---------------------------------|
A|--2222-55--------55--------------|
E|---------55-3333---55------------|
Chorus - 4x
G|---------------------------------|
D|---------------------------------|
A|--2222-5555--------00------------|
E|------------3333-22--------------|
Intro - 2x
|pause|
then..
G|--------------------------------------|
D|--------------------------------------|
A|------5~-5---2--2-5~-5--------5~-5----|
E|-3--3-----55----------55-3--3-----55--|
Pre Chorus - 2x
G|---------------------------------|
D|---------------------------------|
A|--2222-5~-5---------5~-5---------|
E|-----------55--3333-----55-------|
|rest|
Chorus - 4x
Bridge - 3x
G|-------------------------------------|
D|-------------------------------------|
A|-22222222-00000000-------------------|
E|-------------------22222222-33333333-|
G|---------------------------------|
D|---------------------------------|
A|-9999999999999999----------------|
E|---------------------------------|
Chorus - 6x
Intro - 4x

Sign up to vote on this title
UsefulNot useful