You are on page 1of 40

Ada Apa Denganmu - Peterpan

Hello everybadi..this is the tab which i think sounds better to me..hope u like it
4eva!!
By:Fitrio
Intro:C G C G
C
G
Sudah maafkan aku segala salahku
C
G
Dan bila kau tetap bisu ungkapkan salahmu
F
G
Dan aku sifatku dan aku khilafku
F
C
G
Dan aku cintaku dan aku rinduku
Bridge:C G Em F C G Em F
C
G
Sudah lupakan semua segala berubah
C
G
Dan kita terlupa dan kita terluka
F
C
Dan aku sifatku dan aku khilafku
F
C
G
Dan aku cintaku dan aku rinduku
C
Kutanya malam

G
Dapatkah kau lihatnya perbedaan
Yang tak terungkapkan
Em
F
Tapi mengapa kau tlah berubah
C
G
Ada apa denganmu
C
Hanya malam
G
Dapat meleburkan segala rasa
Yang tak terungkapkan
Am
F
Tapi mengapa kau tlah berubah
C
G
Ada apa denganmu
Bridge
F
C
Dan aku sifatku dan aku khilafku
F
C
G
Dan aku cintaku dan aku rinduku

Repeat Chorus
Solo:
e|--9-11---11/13-11--9-11---11/13-11--7-9----9/11--9--7-9----9/11--9--------|
B|------13---------------13---------------11--------------11----------------|
G|--------------------------------------------------------------------------|
D|--------------------------------------------------------------------------|
A|--------------------------------------------------------------------------|
E|--------------------------------------------------------------------------|
e|--9-11----11/13-11--9-11----11/13-11--7-9---9/11--9-8-9-------------------|
B|-------13---------------13----------------11------------9-----------------|
G|--------------------------------------------------------------------------|
D|--------------------------------------------------------------------------|
A|--------------------------------------------------------------------------|
E|--------------------------------------------------------------------------|
Repeat Chorus
Outro:
e|--------------------------------------------------------------------------|
B|--------------------------------------------------------------------------|
G|---------3--5-5-----------3-3--------3------------------------------------|
D|---3-3-5---------3-3-3-5-------3-3-5---5-5--------------------------------|
A|--------------------------------------------------------------------------|
E|--------------------------------------------------------------------------|
e|--------------------------------------------------------------------------|
B|--------------------------------------------------------------------------|
G|---------3--5-5-----------3-3--------3------------3-----------------------|
D|---3-3-5---------3-3-3-5-------3-3-5---5-5--3-3-5---5-3-2-----------------|
A|-----------------------------------------------------------2~-------------|
E|-----------------------------------------------------------3~-------------|
Mungkin Nanti Tab by Peterpan, www.Ultimate-Guitar.Com
Peterpan - Mungkin nanti (Interlude)
Tabbed by AchonX
Feb, 21th 05
to my best friend ever : Yoerie
This tab is the 2nd interlude, the 1st one is simpler but base on this tab also
e|-----------------------------------------------------------------------------------|
B|-------------------14-12-----------------------------------------------------------|
G|-------9------------------14---------11-1311---------------------------------------|
D|--9h11--9-11--12/14-----------14-14-14----------14-14-14--12/11--9-11--------------|
A|----------------------------------------------------------------------12-----------|
E|-----------------------------------------------------------------------------------|
e|-12-12-10-9----9---------------------------12-12-12--12/14-14-16--16/17--19-17-

16-17|
B|-------------12--10------10-12/14--12-1012-----------------------------------------|
G|--------------------9h11-----------------------------------------------------------|
D|-----------------------------------------------------------------------------------|
A|-----------------------------------------------------------------------------------|
E|-----------------------------------------------------------------------------------|
Semua Tentang Kita Tab by Peterpan, www.Ultimate-Guitar.Com
Semua Tentang Kita
by PeterPan
one of my fave song!! hopefully it's rite!!

C
G
|-------------------------|-------------------------|
|-------------------------|-------------------------|
|-------------------------|-------------------------|
|-----2-----2/3--2-----0--|--------0-------0-----2--|
|--3-----3----------3-----|-----2-----2/3-----3-----|
|-------------------------|--3----------------------|
Am7
Em
|-----------------------|-----------------------|
|-----------1-----------|-----------0-----------|
|--------------0-----0--|--------0-----0-----0--|
|-----2-----------2-----|-----2-----------2-----|
|--0-----0--------------|-----------------------|
|-----------------------|--0--------------------|
F
C
|-----------------------|-------------------------|
|-----------1-----------|--------1----------------|
|-----0--------0-----0--|----------------0--------|
|--3-----3--------3-----|-----2-----0/2--------0--|
|-----------------------|--3----------------3-----|
|-----------------------|-------------------------|
Am7
G
|-----------------------|-----------------------------1--------|
|-----------1-----------|-----------1--------3-----------3-----|
|--------------0-----0--|--------0-----0--------0-----------0--|
|-----2-----------2-----|-----0-----------0--------0-----------|
|--0-----0--------------|--------------------------------------|
|-----------------------|--3-----------------------------------|
C
G
Am7
Em
Waktu terasa semakin berlalu

F
C
Am7
G
Tinggalkan cerita tentang kita
C
G
Am7
Em
Akan tiada lagi kini tawamu
F
C
Am7
G
Tuk hapuskan semua sepi di hati

Chorus:
C
G
Am7
Em
Ada cerita tentang aku dan dia
F
C
Am7
G
dan kita bersama saat dulu kala
C
G
Am7
Em
Ada cerita tentang masa yang indah
F
C
Am7
G
Saat kita berduka saat kita tertawa
Int.
C
G
Am7
Em
Teringat di saat kita tertawa bersama
F
C
Am7
G
Ceritakan semua tentang kita
Chorus...
Sebenernya gwe dah ngulik tabnya tapi kayaknya masih kurang, jadi sori kalo gwe
cuma
bisa kasih chordnya aja, mungkin lain kali aja yee...!
-Without introC
Em
Saatnya tuk berkata
F
C
Mungkin yang terakhir kalinya
C
Em
Sudahlah lepaskan semua
F
C
Kuyakin inilah waktunya
G
F
Chorus : Mungkin saja kau bukan yang dulu lagi
G
F
Mungkin saja rasa itu telah pergi..
C
Reff : Dan mungkin bila nanti
Em
Kita kan bertemu lagi
F
Satu pintaku jangan
G
C
Kau coba tanyakan kembali

Em
Rasa yang ku tinggal mati
F
Seperti hari kemarin
G
Saat semua disini......
INTRO : C-Em-F-G
C

Em
Dan bila hatimu terbangun
F
C
Bangun dari mimpi-mimpimu
C
Em
Membuka hatimu yg dulu
F
C
Cerita saat bersamaku
back to chorus
back to reff 1x
C
Tak usah kau tanyakan lagi
Em
Simpan untuk sendiri
F
Semua sesal yang kau cari
G
Semua rasa yang kau beri......
INTRO : C-Em-F-G
end of chord.
Oke deh mungkin segitu dulu aja, ntar kalo ada kesempatan gwe kasih tabnya
yang mo tukar tab/chordnya lagu peterpan tinggal kirim email ke alamat
ghyfer@plasa.com
Tak Bisakah Chords by Peterpan, www.Ultimate-Guitar.Com
Song & lyric by Ariel
Bm F#m
Bm
Hatiku bimbang
F#m
Namun tetap pikirkanmu
Bm
F#m
Selalu, slalu dalam hatiku
Bm
Ku melangkah
F#m
Sejauh apapun itu
Bm
F#m
Selalu, kau di dalam hatiku
Bm

Ku berjalan
F#m
Berjalan memutar waktu
Bm
F#m
Berharap, temukan sisa hatimu
Bm
Mengertilah
F#m
Ku ingin engkau begitu
Bm
F#m
Mengerti, kau di dalam hatiku
C
Tak bisakah

G
Kau menungguku
Am
G
Hingga nanti tetap menunggu
C
Tak bisakah
G
Kau menuntunku
Am
G
Menemani dalam hidupku
Bm
Dara, kau menjadi hidupku
F#m
Ke mana, kau tahu isi hatiku
Bm
Tunggu, sejenak aku di situ
F#m
Jalanku, jalan menemukanmu
Bersama Semula Tab by Acab, www.Ultimate-Guitar.Com
ACAB-Bersama Semular
This is my first time i,m making a Tab so dun get piss if u don't understand it.
Stardard Tuning EADGBe
Tab by warlock666
Intro-play with Dist. best choice use Metal-Zone MT-2(Boss Pedel)
Play string 4 first.
[------------------------------------------------------|
[------------------------------------------------------|
[------------------------------------------------------|
[----------------7-7-7-7-----9-9-9-9-------------------|
[------------------7-7-7-7-----7-7-7-7-----------------|
[------------------------------------------------------|
[------------------------------------------------------|
[------------------------------------------------------|
[------------------------------------------------------|
[---------------------------------7--9--7--------------|
[------------11-11-11-11-----9-9------------7-7-7-7----|

[---------------9-9-9-9-------7-7-------------5-5-5-5--|
[------------------------------------------------------|
[------------------------------------------------------|
[------------------------------------------------------|
[------------------------------------------------------|
[----------6-6-6-6-----4-4-4-4------6-----7-----9------|
[-----------4-4-4-4-----2-2-2-2--------7---------------|
[------------------------------------------------------|
Verse1-play with palm-mute.
i'm not sure how many time u must strum but u just sing and play to get
the correct struming. But it is some where around 7-8 times.
[-------------------------------------------------------|
[-------------------------------------------------------|
[-------------------------------------------------------|
[-------------------------------------------------------|
[-----7-7-7-7-7-7-7-7--6-6-6-6-6-6-6-6--4-4-4-4-4-4-4-4-|
[---5-5-5-5-5-5-5-5--4-4-4-4-4-4-4-4--2-2-2-2-2-2-2-2---|
[------------------------------------------------------|
[------------------------------------------------------|
[------------------------------------------------------|
[---4-4-4-4-4-4-----7-7-7-7-7-7-----6-6-6-6-6-6--------|
[--2-2-2-2-2-2--4--5-5-5-5-5-5--7--4-4-4-4-4-4---------|
[------------------------------------------------------|
[------------------------------------------------------|
[------------------------------------------------------|
[------------------------------------------------------|
[---4-4-4-4-4-4----------------------------------------|
[--2-2-2-2-2-2--4---2----------------------------------|
[------------------------------------------------------|
play without palm-mute
[-------------------------------------------------------|
[-------------------------------------------------------|
[-------------------------------------------------------|
[-------------------------------------------------------|
[-----7-7-7-7-7-7-7-7--6-6-6-6-6-6-6-6--4-4-4-4-4-4-4-4-|
[---5-5-5-5-5-5-5-5--4-4-4-4-4-4-4-4--2-2-2-2-2-2-2-2---|
[------------------------------------------------------|
[------------------------------------------------------|
[------------------------------------------------------|
[---4-4-4-4-4-4-----7-7-7-7-7-7-----6-6-6-6-6-6--------|
[--2-2-2-2-2-2--4--5-5-5-5-5-5--7--4-4-4-4-4-4---------|
[------------------------------------------------------|
[------------------------------------------------------|
[------------------------------------------------------|
[------------------------------------------------------|
[---4-4-4-4-4-4----------------------------------------|
[--2-2-2-2-2-2--4---2----------------------------------|
[------------------------------------------------------|

Verse2 is the same as Verse1 so just play the same way as verse1(palm-mute)
The solo i,ve not COMPLETED it, so sorry... but i can give u the first few
notes.... U
listen 2 the song to get the timing rite...
[----------------------------------------------------------------------|
[---------------5------------7--5------------5--5------------------5---|
[--------4---6--------4---6------------4---6------7-7-7--6-6---6-7---6-|
[-----7------------7----------------7------------------------7---------|
[----------------------------------------------------------------------|
[----------------------------------------------------------------------|
A.C.A.B - Fight For You Right
standard tuning
(intro)
G
Bm
c
D
e:---3--------2---------3--------5--5-7-5---5---------|
B:---3------2/3---------5--------7--------8-----------|
G:---4--------4---------5--------7--------------------|(2x repeat)
D:---5--------4---------5--------7--------------------|
A:---5--------2---------3--------5--------------------|
E:---3--------2---------3--------5--------------------|
(verse)
G
Bm
I'm really sad 'bout it
C
D
To see the stupid in your head
G
Bm
You acting like a pussy
C
D
Killing all the guts you got

G
Bm
But you don't even fight
C
D
When your enemy not satisfied
G
Bm
You think about disaster
C
D
but all you do is cryin' all night

(chorus)
Em
D
C
Bm
Hey you where your guts

C

D
Em
D
C
See the people change if you keep on cryin' all night
Em
D
C
Bm
Hey you where your guts

Bm

C

D

C

D
Em
D
C
Can't you fight for your right

C

Bm

A

G

(solo)
e:------------------------------------------------------------------2---2-3-|
B:--------------------------------------------------------3--3-5-3-5--5-----|
G:---------------------------------------2--2-4-2-4-5-4-5--5----------------|
D:---------------------2---2-4-2-4-5-4-5--5---------------------------------|
A:----2---2-3-2-3-5-3-5--5--------------------------------------------------|
E:3-5---5-------------------------------------------------------------------|
e:---2-3-5-3-5-7-5-7-8-7-8-10-8-10-12-10-12-14-12-14-15-14-15-14-15-15~~----|
B:--------------------------------------------------------------------------|
G:--------------------------------------------------------------------------|
D:--------------------------------------------------------------------------|
A:--------------------------------------------------------------------------|
E:--------------------------------------------------------------------------|
e:---15-15-14-15-14-12-12-14~-14-12-12-14-12-10-12~-12-10-12-10-------------|
B:--------------------------------------------------------------------------|
G:--------------------------------------------------------------------------|
D:--------------------------------------------------------------------------|
A:--------------------------------------------------------------------------|
E:--------------------------------------------------------------------------|
e:---12----12----12----12---------------------------------------------------|
B:------13----12----10------------------------------------------------------|
G:------------------------12~~-12-12-11-12/14-12-11-12-11h12----11----------|
D:-----------------------------------------------------------12----12/14----|
A:--------------------------------------------------------------------------|
E:--------------------------------------------------------------------------|
e:--------------------------------------------------------------------------|
B:--------------------------------------------------------------------------|
G:---12---------------------------------------------------------------------|

D:------14-12-12-14-12-10-12-9-12-7-12-5-12-5~~-----------------------------|
A:--------------------------------------------------------------------------|
E:--------------------------------------------------------------------------|
repeat verse & chorus till da end
This is my first tab so i hope you guys can go easy with it..
this pretty good song and easy to play though.. (best to play this song in full
chords)
have fun n enjoy it!!!
unite n fight!!!!
if you guys have any comment, plzz send yours to my email.. weird2417@yahoo.com
artist~A.C.A.B
Song~Fight For Your Right
Tabbers Email~manmc89@yahoo.com
Hey Yo Wassap ! This Tab is 70% right i think if i tab the whole song
so i'll just give you every part of the song and you arrange them in the
original order
~~~~~Have Fun~~~~~
Intro/Verse
For intro,Play Twice ! For Verse,Play 4 times !
I------------------------------2--------------3---I--------------3------2-2------------3-3----------I-----3-3----------0------0-0-----1------1-1------I--1------1-1-------------------------------------I-------------------------------------------------I-------------------------------------------------I--3-3--2-2--0-0----------------------------------I-----------------3-3-----------------------------Chorus
Play 4 Times
I-------------7-------------5-------------3-------I-----7-7-----------5-5-----------3-3-------------I--5------5-5----3------3-3----1------1-1---------I-------------------------------------------------I----------------I----------------I--0--1--3-------I----------------Chorus ending
I-------------------------------------------------I-------------------------------------------------I--1--0-------------------------------------------I--------3--1--------------------------------------

Karma Chords by Cokelat, www.Ultimate-Guitar.Com
Band: Cokelat from Indonesia, they dont have an official website yet.
But it really exist, you can prove it by reading
http://www.mtvasia.com/news/Asian/Items/0305/0305007.html
Intro : G#m
E
Sekian lama kita bersama
Ternyata kau juga sama saja

G#m

E
Kau kira kupercaya semua
S'gala tipu daya oh percuma

G#m

(*)
F#m
B
Kau buat sempurna awalnya

F#m

B
Berakhir bencana

Reff I :
E
Selamat tinggal sayang...
G#m
Bila umurku panjang

kelak ku 'kan datang

C#m
B
'Tuk buktikan satu balas 'kan kau jelang
E
Jangan menangis sayang
G#m
Ku ingin kau rasakan pahitnya terbuang
C#m
B
Sia-sia, memang kau pantas dapatkan
E
Akhirnya, usai sudah semua
G#m

Kudapat tertawa bahagia
F#m
F#m
S'lalu tampak indah awalnya
Berakhir bencana....

B

Back to Reff I
Music : E � G#m (2x)

Reff II :
F#
Selamat tinggal sayang...
Bbm
Bila umurku panjang

kelak ku 'kan datang

Ebm
'Tuk buktikan satu balas 'kan kau jelang
F#
Jangan menangis sayang
Bbm
Ku ingin kau rasakan pahitnya terbuang
Ebm

C#m

Crazy Tab by Simple Plan, www.Ultimate-Guitar.Com
Band - Simple Plan
Song - Crazy
Album - Still Not Getting Any...
Guitar 1 - Jeff Stinco
Guitar 2 - Sebastien Lefebvre
Guitar 1
Intro:x10 0:00
E|-----------18----------------------------------------|
B|---16-18-16--16-18-16--------------------------------|
G|15---------------------------------------------------|
D|-----------------------------------------------------|
A|-----------------------------------------------------|
E|-----------------------------------------------------|
Verse 1:x8 0:26
E|-----------18----------------------------------------|
B|---16-18-16--16-18-16--------------------------------|
G|15---------------------------------------------------|
D|-----------------------------------------------------|
A|-----------------------------------------------------|

E|-----------------------------------------------------|
Chorus:x10 0:48
E|-----------18----------------------------------------|
B|---16-18-16--16-18-16--------------------------------|
G|15---------------------------------------------------|
D|-----------------------------------------------------|
A|-----------------------------------------------------|
E|-----------------------------------------------------|
Verse 2:x1 1:14
E|-----------------------------------------------------|
B|16-16-15--16-16-15--16-16-15--16-16-15---------------|
G|--------15--------15--------15--------15-------------|
D|-----------------------------------------------------|
A|-----------------------------------------------------|
E|-----------------------------------------------------|
Verse 2: Cont.
E|--------------------------------------------15-------|
B|16-16-18-15-16-16-18-15-16-16-15-18-16-16-18---------|
G|-----------------------------------------------------|
D|-----------------------------------------------------|
A|-----------------------------------------------------|
E|-----------------------------------------------------|
Chorus:x8 1:35
E|-----------18----------------------------------------|
B|---16-18-16--16-18-16--------------------------------|
G|15---------------------------------------------------|
D|-----------------------------------------------------|
A|-----------------------------------------------------|
E|-----------------------------------------------------|
Solo:x2 1:57(Lisson for Timeing)
E|---------------------------------------------------------|
B|---------------------------------------------------------|
G|12-12-10-12-12-10-8--15-13-12-15-13-12-15-13-12-15-13-12-|
D|---------------------------------------------------------|
A|---------------------------------------------------------|
E|---------------------------------------------------------|
Verse 1:x7 2:18
E|-----------18----------------------------------------|
B|---16-18-16--16-18-16--------------------------------|
G|15---------------------------------------------------|
D|-----------------------------------------------------|
A|-----------------------------------------------------|
E|-----------------------------------------------------|
Chorus:x16 2:40
E|-----------18----------------------------------------|
B|---16-18-16--16-18-16--------------------------------|
G|15---------------------------------------------------|
D|-----------------------------------------------------|
A|-----------------------------------------------------|
E|-----------------------------------------------------|

Outro: 3:22(Until you want to stop)
E|-----------18----------------------------------------|
B|---16-18-16--16-18-16--------------------------------|
G|15---------------------------------------------------|
D|-----------------------------------------------------|
A|-----------------------------------------------------|
E|-----------------------------------------------------|
Guitar 2
Intro: x1 0:05 (Hold to a 16 count or stroke 16 times)
E|-----------------------------------------------------------------|
B|-----------------------------------------------------------------|
G|-8---------------5-----------------------------------------------|
D|-8---------------5---------------6---------------8---------------|
A|-6---------------3---------------6---------------8---------------|
E|---------------------------------4---------------6---------------|
Verse: Guitar 1
Chorus: 0:48 x1 (Stroke 16 times)
E|-----------------------------------------------------------------|
B|-----------------------------------------------------------------|
G|-8---------------5-----------------------------------------------|
D|-8---------------5---------------6---------------8---------------|
A|-6---------------3---------------6---------------8---------------|
E|---------------------------------4---------------6---------------|
Verse: Guitar 1
Pre Chorus: x1 ((1:33-1:34)A little break in between both)
E|-----------------------------------------------------------------|
B|-----------------------------------------------------------------|
G|-----------------------------------------------------------------|
D|-88--------88----------------------------------------------------|
A|-88--------88----------------------------------------------------|
E|-66--------66----------------------------------------------------|
Chorus: 1:35 x1 (Stroke 16 times)
E|-----------------------------------------------------------------|
B|-----------------------------------------------------------------|
G|-8---------------5-----------------------------------------------|
D|-8---------------5---------------6---------------8---------------|
A|-6---------------3---------------6---------------8---------------|
E|---------------------------------4---------------6---------------|
Solo: x2 1:57 (Not saying this is 100% correct, but this is how my band plays
it.It sounds fine)
E|-----------------------------------------------------------------|
B|-----------------------------------------------------------------|
G|-----------------------------------------------------------------|
D|-10-10-8-10--10-8-6--6-6-6-6-6-6-6-10-10-8-6---8--8-8-8-8-8-8-8--|
A|-10-10-8-10--10-8-6--6-6-6-6-6-6-6-10-10-8-6---8--8-8-8-8-8-8-8--|
E|-----------------------------------------------------------------|
Verse: 2:18 x 1(Acustic Guitar, play to 16 count all but last one go to 8 count
for that

let it ring, or lissong to song and figure out the struming)
E|-----------------------------------------------------------------|
B|-----------------------------------------------------------------|
G|-8---------------5-----------------------------------------------|
D|-8---------------5---------------6---------------8---------------|
A|-6---------------3---------------6---------------8---------------|
E|---------------------------------4---------------6---------------|
Chorus:x2 2:40
E|-----------------------------------------------------------------|
B|-----------------------------------------------------------------|
G|-8---------------5-----------------------------------------------|
D|-8---------------5---------------6---------------8---------------|
A|-6---------------3---------------6---------------8---------------|
E|---------------------------------4---------------6---------------|
That is about it. There is a guitar 3 in the song if you lisson closely, but i
have not
that part out yet. When i do i will add it to this one or a nother one. i am not
going
say that this is a perfect tab, this is just how my band plays it, and it sounds
just
fing to me. i tried to make this tab as simple as possible so you got to read the
stuff above
tab. This is my first tab, but i am no stranger to tabs.This is an awsome song
Track 1: American Idiot
-----------------------------------------------------------Note: The xxx000 in the Main Riff/Verse is often overlooked.
Listen to the song carefully; it often replaces the final F#5.
As far as I've seen, though, they don't bother with it while
playing live, so you can just play an F#5 instead.
Main Riff:
G#5 C#5 F#5 C#5 G#5 F#5
e|----------------------------------|
B|----------------------------------|
G|------6---------6-----------------|
D|-6----6----4----6---6---4---------|
A|-6----4----4----4---6---4---------|
E|-4---------2--------4---2---------|
G#5 C#5 F#5 C#5 G#5
e|------------------------0---------|
B|------------------------0---------|
G|------6---------6-------0---------|
D|-6----6----4----6---6-------------|
A|-6----4----4----4---6-------------|
E|-4---------2--------4-------------|
Verse:
G#5 C#5 F#5 C#5 G#5 F#5
e|-------------------------------------------|
B|-------------------------------------------|
G|--------------------6---------6------------|
D|--(drums)------6----6----4----6---6---4----|

A|---------------6----4----4----4---6---4----|
E|---------------4---------2--------4---2----|
G#5 C#5 F#5 C#5 G#5
e|--------------------------------------0-----|
B|--------------------------------------0-----|
G|--------------------6---------6-------0-----|
D|--(drums)------6----6----4----6---6---------|
A|---------------6----4----4----4---6---------|
E|---------------4---------2--------4---------|
G#5 C#5 F#5 C#5 G#5 F#5
e|-------------------------------------------|
B|-------------------------------------------|
G|--------------------6---------6------------|
D|--(drums)------6----6----4----6---6---4----|
A|---------------6----4----4----4---6---4----|
E|---------------4---------2--------4---2----|
G#5 C#5 F#5 C#5 G#5
e|-------------------------------------------|
B|-------------------------------------------|
G|--------------------6---------6------------|
D|--(drums)------6----6----4----6---6--------|
A|---------------6----4----4----4---6--12\---|
E|---------------4---------2--------4--------|
Chorus:
C#5 G#5 D#5 G#5
e|----------------------------|
B|----------------------------|
G|-6---------8----------------|
D|-6----6----8----6-----------|
A|-4----6----6----6-----------|
E|------4---------4-----------|
C#5 G#5 D#5
e|--------------------------|
B|--------------------------|
G|-6---------8--------------|
D|-6----6----8--------------|
A|-4----6----6--------------|
E|------4-------------------|
Solo:
e|---------------------------------------------------------------|
B|---------------------------------------------------------------|
G|--10-10-10-10-10-10-10-10-8-6---8-8-8-8-8-8/10-8-6-5-----------|
D|---------------------------------------------------------------|
A|--8--8--8--8--8--8--8--8--6-4---6-6-6-6-6-6/8--6-4-3-----------|
E|---------------------------------------------------------------|
e|------------------------------6----8----6----------------------|
B|-------------------------9-----------------9v------------------|
G|--3-3-3-3-3-5-6-5-3---88---88---88---88--8---------------------|

D|---------------------------------------------------------------|
A|---------------------------------------------------------------|
E|---------------------------------------------------------------|
e|---------------------------------------------------------------|
B|---------------------------------------------------------------|
G|--10-10-10-10-10-10-10-10-8-6---8-8-8-8-8/10-8-6-5-------------|
D|---------------------------------------------------------------|
A|--8--8--8--8--8--8--8--8--6-4---6-6-6-6-6/8--6-4-3-------------|
E|---------------------------------------------------------------|
e|---------------------------------------------------------------|
B|---------------------------------------------------------------|
G|--3-3-3-3-3-5-6-5-3-8/13v--------------------------------------|
D|---------------------------------------------------------------|
A|---------------------------------------------------------------|
E|---------------------------------------------------------------|
End:
G#5 C#5 F#5 C#5 G#5
e|-------------------------0--------|
B|-------------------------0--------|
G|------6---------6--------0--------|
D|-6----6----4----6---6-------------|
A|-6----4----4----4---6-------------|
E|-4---------2--------4-------------|
G#5 C#5 F#5 C#5 G#5 F#5
e|----------------------------------|
B|----------------------------------|
G|------6---------6-----------------|
D|-6----6----4----6---6---4---------|
A|-6----4----4----4---6---4---------|
E|-4---------2--------4---2---------|
G#5 C#5 F#5 C#5 G#5
e|------------------------0---------|
B|------------------------0---------|
G|------6---------6-------0---------|
D|-6----6----4----6---6-------------|
A|-6----4----4----4---6-------------|
E|-4---------2--------4-------------|
G#5 C#5 F#5 C#5 G#5 F#5
e|----------------------------------|
B|----------------------------------|
G|------6---------6-----------------|
D|-6----6----4----6---6---4---------|
A|-6----4----4----4---6---4---------|
E|-4---------2--------4---2---------|
G#5 C#5 F#5 C#5 G#5
e|----------------------------------|
B|----------------------------------|
G|------6---------6-----------------|
D|-6----6----4----6---6-------------|
A|-6----4----4----4---6-------------|

E|-4---------2--------4-------------|
Order:
Main Riff x2
Verse
Chorus
Main Riff x1
Verse
Chorus
Main Riff x1
Chorus w/ Solo (no lyrics)
Second part of Main Riff x5
Chorus
End
Lyrics:
Don't wanna be an American idiot
Don't want a nation under the new mania
Can you hear the sound of hysteria?
The subliminal mind-fuck America
Welcome to a new kind of tension
All across the alien nation
Everything isn't meant to be OK
Television dreams of tomorrow
We're not the ones meant to follow
For that's enough to argue
Well, maybe I'm the faggot, America
I'm not a part of a redneck agenda
Now everybody do the propaganda
And sing along in the age of paranoia

(Verse 1)

(Chorus)

(Verse 2)

(Chorus)
Don't wanna be an American idiot
One nation controlled by the media
Information age of hysteria
It's going out to idiot America

(Verse 3)

(Chorus)
Track 3: Holiday
-----------------------------------------------------------Intro Riff:
e|--------------------|
B|-9----6----13---8---|
G|-10---6----13---8---|
D|-x----x----x----x---|
A|-8----4----11---6---|
E|--------------------|
Main Riff:

F5 C#5 G#5 D#5
e|-----------------|
B|-----------------|
G|-10--6-------8---|
D|-10--6---6---8---|
A|-8---4---6---6---|
E|---------4-------|
Verse:
F5 C#5 G#5 D#5
F5 C#5 G#5 C5
F5 C#5 G#5 D#5 C5
e|-----------------------------------------------------------|
B|-----------------------------------------------------------|
G|-10--6-------8------10--6-------5------10--6-------8---5---|
D|-10--6---6---8------10--6---6---5------10--6---6---8---5---|
A|-8---4---6---6------8---4---6---3------8---4---6---6---3---|
E|---------4------------------4------------------4-----------|
Chorus:
F5
C#5
G#5
D#5
F5
C#5
G#5
C5
e|------------------------------------------------------|
B|------------------------------------------------------|
G|--------6-------------8-------------6-------------5---|
D|-3------6------6------8------3------6------6------5---|
A|-3------4------6------6------3------4------6------3---|
E|-1-------------4-------------1-------------4----------|
Bridge:
F5 G#5 C# A# D# F
F5
G# D# C F
x2
e|------------------------------------------|
B|------------------------------------------|
G|---------6-----8---------------8-----10---|
D|-3---6---6--8--8--10----3---6--8--10-10---|
A|-3---6---4--8--6--10----3---6--6--10-8----|
E|-1---4------6-----8-----1---4-----8-------|
Solo:
Guitar 1:
C#5
G#5
C5
F5
D#5
e|------------------------------------------------|
B|------------------------------------------------|
G|-6----------------------5--------10------8------|
D|-6---------6------------5--------10------8------|
A|-4---------6------------3--------8-------6------|
E|-----------4------------------------------------|
Guitar 2:
e|------------------------------------8------8----|
B|-----------8-9----------8----------------8---8--|
G|-10-10-10------8-6-5--5---9-5--5/10---10--------|
D|------------------------------------------------|
A|------------------------------------------------|
E|------------------------------------------------|
Guitar 1:
C#5

G#5

C5 (strum through)

e|--------------------------------------------------------------------|
B|--------------------------------------------------------------------|

G|-6----------------------5-------------------------------------------|
D|-6---------6------------5-------------------------------------------|
A|-4---------6------------3-------------------------------------------|
E|-----------4--------------------------------------------------------|
Guitar 2:
(let ring)
e|------------------------------------------------12-12-12-12-12/13---|
B|-----------8-9-------------------------13-13-13---------------------|
G|-10-10-10------8-6-5-55/12-12-12-12-12------------------------------|
D|--------------------------------------------------------------------|
A|--------------------------------------------------------------------|
E|--------------------------------------------------------------------|
Interlude:

x6
G|----------------------------------------------------------|
D|----------------------------------------------------------|
A|----------------4-----6----------------------6-----8------|
E|--1-1-1--4-4-4-----6-----8\1---1-1-1--4-4-4-----8-----\1--|
D# C5 F5
e|----------------------------------------------------------|
B|---This-is-played-on--------------------------------------|
G|--------the-sixth-repeat:--------------------8-----10-----|
D|---------------------------------------------8--10-10-----|
A|---------------------------------------------6--10-8------|
E|------------------------------------------------8---------|
C5
e|------|
B|------|
G|--5---|
D|--5---|
A|--3---|
E|------|
End:
F5 G#5 D#5 C5 F5
F5
e|-------------------------|
B|-------------------------|
G|-10--6---8-------10------|
D|-10--6---8---10--10---3--|
A|-8---4---6---10--8----3--|
E|-------------8--------1--|
Order:
Intro Riff x4
Main Riff x2
Verse x2
Chorus
Intro Riff x2
Verse x2
Chorus
Bridge
Solo
Interlude

Chorus x2 (Hold last C5)
Main Riff x3
End
Lyrics:
Say! Hey!
Hear the sound of the falling rain
Coming down like an Armageddon flame (Hey!)
The shame, the ones who die without a name
Hear the dogs howling out of key
To a hymn called "Faith and Misery" (Hey!)
And bleed, the company lost the war today

(Verse 1)

(Verse 2)

I beg to dream and differ from the hollow lies
This is the dawning of the rest of our lives
On holiday

(Chorus)

There's a drum pounding out of time
Another protestor has crossed the line (Hey!)
To find, the money's on the other side

(Verse 3)

Can I get another Amen? (Amen!)
There's a flag wrapped around the score of men (Hey!)
A gag, A plastic bag on a monument

(Verse 4)

(Chorus)
(Bridge)
The representative from California has the floor:
"Zieg Heil!" to the president gasman
"Bombs away!" is your punishment
Pulverize the Eiffel Towers
Who criticize your government
"Bang Bang!" goes the broken glass man
Kill all the fags that don't agree
Triumph by fire setting fire
Is not a way that's meant for me
Just cause... just cause - because we're outlaws yeah!
I beg to dream and differ from the
This is the dawning of the rest of
I beg to dream and differ from the
This is the dawning of the rest of
This is our lives on holiday

hollow lies
our lives
hollow lies
our lives

(Interlude)

************************************************************
-----------------------------------------------------------Track 4: Boulevard of Broken Dreams
-----------------------------------------------------------Riff 1:
e|-----------------------|

B|--8-9---9/13-11---8-9--|
G|-----------------------|
D|-----------------------|
A|-----------------------|
E|-----------------------|
Riff 2:
x3
e|------------------------------|
B|-------8-9---9/13-11---8-9--9-|
G|-10-10------------------------|
D|------------------------------|
A|------------------------------|
E|------------------------------|
e|---------------------------------------|
B|--------8-9--9/13-11-13-13-13-13-13-13-|
G|-10-10---------------------------------|
D|---------------------------------------|
A|---------------------------------------|
E|---------------------------------------|
e|---------------------------------------|
B|-13-13-13-13-13-13-13------------------|
G|---------------------------------------|
D|---------------------------------------|
A|---------------------------------------|
E|---------------------------------------|
Verse:
The verse chords on the album are actually played with a
capo on the first fret as open chords (Em G D A), but
they're tabbed here for use without a capo.
Fm
G#
D#
A#
A# A# C5 <- Played over the end of
e|--1----4----6----6---|------------| the last repitition before
B|--1----4----8----6---|------------|
chorus (distored).
G|--1----5----8----7---|--3--3--5---|
D|--3----6----8----8---|--3--3--5---|
A|--3----6----6----8---|--1--1--3---|
E|--1----4---------6---|------------|
(I walk a-)
Chorus:
C#5 G#5 D#5 F5 x3 C#5 G#5 C5
e|---------------------------------------|
B|---------------------------------------|
G|--6---------8------------6---------5---|
D|--6----6----8----3-------6----6----5---|
A|--4----6----6----3-------4----6----3---|
E|-------4---------1------------4--------|
Outro:
Guitar 1
x3
e|--------------------------------------------------------|
B|--------------------------------------------------------|
G|--------------------------------------------------------|
D|--------------------------------------------------------|
A|---------4--4--4--6--6--6--5--5--5----------------------|

E|-1--1--1-----------------------------4--4--4--0--0--0---|
Guitar 2 (strum fast)
x3
e|--------------------------------------------------------|
B|-------------------------------------16-16-16-17-17-17--|
G|-10-10-10-10-10-10-10-10-10-10-10-10-13-13-13-xx-xx-xx--|
D|-x--x--x--x--x--x--x--x--x--x--x--x-----------14-14-14--|
A|-8--8--8--8--8--8--8--8--8--8--8--8---------------------|
E|--------------------------------------------------------|
Guitar 1
e|-------------------------------------------------|
B|-------------------------------------------------|
G|-------------------------------------------------|
D|-------------------------------------6--6--2--2--|
A|---------4--4--4--6--6--6--5--5--5---6--6--2--2--|
E|-1--1--1-----------------------------4--4--0--0--|
Guitar 2 (strum fast)
e|--------------------------------------------------|
B|-------------------------------------16-16-17-17--|
G|-10-10-10-10-10-10-10-10-10-10-10-10-13-13-xx-xx--|
D|-x--x--x--x--x--x--x--x--x--x--x--x--------14-14--|
A|-8--8--8--8--8--8--8--8--8--8--8--8---------------|
E|--------------------------------------------------|
Order:
Verse (2x alone, 1x w/Riff 1)
Verse (2x alone, 2x w/Riff 1)
Chorus
Verse (4x alone, 1x w/Riff 1)
Verse (2x alone, 2x w/Riff 1)
Chorus
Verse x2
Chorus (w/Riff 2)
Verse x2
Chorus (w/end of Riff 2 after 2nd repeat)
Outro
Lyrics:
I walk a lonely road
The only one I that have ever known
Don't know were it goes
But its home to me and I walk alone
I walk this empty street
On the boulevard of broken dreams
Where the city sleeps
And I'm the only one and I walk alone
I walk alone I walk alone
I walk alone I walk aMy shadows the only one that walks beside me
My shallow heart's the only thing that's beating
Sometimes I wish someone out there will find me

Till then I'll walk alone
I'm walking down the line
That divides me somewhere in my mind
On the border line of the edge
And were I walk alone
Read between the lines of what's
Fucked up and every things all right
Check my vital signs to know I'm still alive
And I walk alone
I walk alone I walk alone
I walk alone I walk aMy shadows the only one that walks beside me
My shallow hearts the only thing that's beating
Sometimes I wish someone out there will find me
Till then I'll walk alone
I walk this empty street
On the boulevard of broken dreams
Where the city sleeps
And I'm the only one and I walk aMy shadows the only one that walks beside me
My shallow hearts the only thing that's beating
Sometimes I wish someone out there will find me
Till then I'll walk alone
American Idiot Bass Tab by Green Day, www.Ultimate-Guitar.Com
Tabbed By : gr33n_dayw49
e-mail: gr33n_dayw49@hotmail.com
Tuning: EADG
(INTRO) Start after guitar plays riff once!!!
G|--------------------------------------------------------------------------|
D|--------------------------------------------------------------------------|
A|--------4--4-4-----4-----------4--4-4-----4------------4--4-4-----4-------|
E|2-4-4-4--------2-2---4-X--4-4-4--------2-2---4-2--4-4-4--------2-2---4-X--|
^play this on last note on guitar riff
(VERSE 1)
G|-----------------------------------------------|
D|-----------------------------------------------|
X2
A|-------4--4-4-----4------------4--4-4-----4----|
E|-4-4-4--------2-2---4-2--4-4-4--------2-2---4-X|
(CHORUS)
G|--------------------------------------------------------------------------|
D|--------------------------------------------------------------------------|
A|-4444444444444444------------------66666666666666666----------------------|
E|------------------4444444444444444-------------------4444444444444444-----|
<little drum solo>
G|-----------------------------------------------------S--------------------|
D|-----------------------------------------------------T--------------------|
A|-4444444444444444------------------6666666666666666--O--------------------|
E|------------------4444444444444444-------------------P--------------------|
(BRIDGE)

G|---------------------------------------------------|
D|---------------------------------------------------|
A|-------4--4-4-----4-------------4--4-4------4------|
E|-4-4-4--------2-2---4-2---4-4-4---------2-2---4-X--|
(VERSE 2)
G|-----------------------------------------------|
D|-----------------------------------------------|
X2
A|-------4--4-4-----4------------4--4-4-----4----|
E|-4-4-4--------2-2---4-2--4-4-4--------2-2---4-X|
(CHORUS)
G|--------------------------------------------------------------------------|
D|--------------------------------------------------------------------------|
A|-4444444444444444------------------66666666666666666----------------------|
E|------------------4444444444444444-------------------4444444444444444-----|
<little drum solo>
G|-----------------------------------------------------S--------------------|
D|-----------------------------------------------------T--------------------|
A|-4444444444444444------------------6666666666666666--O--------------------|
E|------------------4444444444444444-------------------P--------------------|
(BRIDGE)
G|---------------------------------------------------|
D|---------------------------------------------------|
X2
A|-------4--4-4-----4-------------4--4-4------4------|
E|-4-4-4--------2-2---4-2---4-4-4---------2-2---4-X--|
(GUITAR SOLO)
G|--------------------------------------------------------------------------|
D|--------------------------------------------------------------------------|
A|-4444444444444444------------------66666666666666666----------------------|
E|------------------4444444444444444-------------------4444444444444444-----|
<little drum solo>
G|-----------------------------------------------------S--------------------|
D|-----------------------------------------------------T--------------------|
A|-4444444444444444------------------6666666666666666--O--------------------|
E|------------------4444444444444444-------------------P--------------------|
(VERSE 3) NO BASS
G|-R------------------------------------------------------------------------|
D|-E------------------------------------------------------------------------|
A|-S------------------------------------------------------------------------|
E|-T------------------------------------------------------------------------|
(CHORUS)
G|--------------------------------------------------------------------------|
D|--------------------------------------------------------------------------|
A|-4444444444444444------------------66666666666666666----------------------|
E|------------------4444444444444444-------------------4444444444444444-----|
<little drum solo>
G|-----------------------------------------------------S--------------------|
D|-----------------------------------------------------T--------------------|
A|-4444444444444444------------------6666666666666666--O--------------------|
E|------------------4444444444444444-------------------P--------------------|
(OUTRO)
G|--------------------------------------------------------------------------|
D|--------------------------------------------------------------------------|
A|--------4--4-4-----4-----------4--4-4-----4------------4--4-4-----4-------|
E|2-4-4-4--------2-2---4-2--4-4-4--------2-2---4-X--4-4-4--------2-2---4-X--|

G|-R--------------|
D|-E--------------|
A|-S------444-----|
E|-T---------4----|
|
|
|
|
|
|
|

/
\
h
p
~
+
x

slide up
slide down
hammer-on
pull-off
vibrato
harmonic
Mute note

Boulevard Of Broken Dreams Bass Tab by Green Day, www.Ultimate-Guitar.Com
-----------------------------------------------------------------GREEN DAY - BOULEVARD OF BROKEN DREAMS (AMERICAN IDIOT)
-----------------------------------------------------------------[ Tabber: LUIZ MANZANO (BRASIL) ]
[ e-mail: lukdeluca@yahoo.com.br ]
"Don't know where it goes...." (5x)
G|------------------------|
D|------------------------|
A|-----------6-6\1-11-----|
E|1-1/4-44--4-------4\1---|
"I walk...."
(before chorus)
G|----------------------|
D|----------------------|
A|---------66\1-11-13---|
E|11/4-44-4-------------|
Chorus
"My shadows are the only one that walks beside me..."
G|-----------------------------------------------------------------|
D|-----------------------------------------------------------------|
A|4444----6666----4444----6666----4444----6666----4444----333333---|
E|----4444----1111----4444----1111----4444----1111----4444---------|
"Ah ah..., I'm walking down the line..." (9x)
G|------------------------|
D|------------------------|
A|-----------6-6\1-11-----|
E|1-1/4-44--4-------4\1---|
"I walk...."
(before chorus)
G|----------------------|
D|----------------------|
A|---------66\1-11-13---|
E|11/4-44-4-------------|
"Ah ah, ah ah..."
G|--------------------------------------------|
D|--------------------------------------------|

A|-----------6-6\1-11------------66\1-11-13---|
E|1-1/4-44--4-------4\1-11/4-44-4-------------|
Solo
G|----------------------------------------------------------------|
D|----------------------------------------------------------------|
A|4444----6666----4444----6666----44--6666----44--3333333333333---|
E|----4444----1111----4444----1111--44----1111--44----------------|
only guitar and vocal...
"... my shadows are the only one that walks beside me..."
G|-------------------------------------------------------------------------------|
D|-------------------------------------------------------------------------------|
A|11-34444----6666----4444----6666----4444----6666----4444----3333333333333333---|
E|--------4444----1111----4444----1111----4444----1111----4444-------------------|
final riff
G|-------------------------------------------------------------------------------------|
D|-------------------------------------------------------------------------------------|
A|-----4-44-6-66-5-55-------------4-44-6-66-5-55-------------4-44-6-66-555-------------|
E|1-11---------------4-44-0-001-11--------------4-44-0-001-11--------------4-44-0001-11|
G|-------------------|
D|-------------------|
A|4-44-6-66-5-55-----|
E|---------------4400|

|
|
|
|
|
|
|

/
\
h
p
~
+
x

slide up
slide down
hammer-on
pull-off
vibrato
harmonic
Mute note

Hitchin A Ride Bass Tab by Green Day, www.Ultimate-Guitar.Com
Artist:
Song:
Album:

Green Day
Hitchin' A Ride
Originally: Nimrod,
Now also on: International Superhits
Bassist: Mike Dirnt
(User: MikeDirntG3)
I have seen a lot of bass tabs for this song over time, but none of them have
seemed completely correct. I decided to tab this out to put the correct version
out there. I found this tab in a "Guitar" magazine from Jan '98, and since they
are usually completely correct, I am totally confident that this tab is totally
correct. If not, oh well, tab it yourself.

Key:
pm____________: = palm mute until the colon
(I don't know how to explain it any better?)
x = muffle string
/ = slide up
\ = slide down
Intro: Violin, then (before vocals)
pm_______________:
pm_______________:
G:---------------------------|---------------------------|
D:---------------------------|---------------------------|
A:---------------------------|---------------------------|(1 time)
E:-7-7-x-5-5-x-4-4-x-3-3-3-/-|-7-7-x-5-5-x-4-4-x-3-3-3-/-|
Verse 1:
pm_______________:
G:---------------------------|
D:---------------------------|
A:---------------------------|(7 times)
E:-7-7-x-5-5-x-4-4-x-3-3-3-/-|
pm_______________:
G:-------------------------------------|
D:-------------------------------------|
A:-------------------(strum fast)------|(1 time)
E:-7-7-x-5-5-x-4-4-4-4-4-4-6-6-6-6-6-6-|
�Interlude�:
G:---------------------|
D:---------------------|
A:---------------------|(3 times)
E:-7-7-5-5-4-4-3-3-3-/-|
G:-----------------|
D:-----------------|
A:-----------------|(1 time
E:-7-7-5-5-4-4-----|
Verse 2:
pm_______________:
G:---------------------------|
D:---------------------------|
A:---------------------------|(7 times)
E:-7-7-x-5-5-x-4-4-x-3-3-3-/-|
pm_______________:
G:-------------------------------------|
D:-------------------------------------|
A:-------------------(strum fast)------|(1 time)
E:-7-7-x-5-5-x-4-4-4-4-4-4-6-6-6-6-6-6-|
Pre-Chorus:

G:-------------------|
D:-------------------|
A:-------------------|(3 times)
E:-7-7-5-5-4-4-3-3-/-|
G:------------------------------|
D:------------------------------|
A:---------------------------7\-|(1 time)
E:-7�7-7-5-5-5-5-4-4-4-4-3/7----|
Chorus:
G:----------------------------------------------------------|
D:----------------------------------------------------------|
A:----------------------------------------------------------|(1 time)
E:-0-0-0-0�-0-0--2-2-2-2--2-2-7--7-7-5--5-5-4-4-4-4-3-3-3-0-|
G:-----------------------------|
D:-----------------------------|
A:-----------------------------|(1 time)
E:-0-0-0-0-0-0-0-0-2-2-2-2-2---|
Interlude:
pm_______________:
G:---------------------------|
D:---------------------------|
A:---------------------------|(2 times)
E:-7-7-x-5-5-x-4-4-x-3-3-3-/-|
Verse 3:
pm_______________:
G:---------------------------|
D:---------------------------|
A:---------------------------|(2 times)
E:-7-7-x-5-5-x-4-4-x-3-3-3-/-|
pm_______________:
G:---------------------------|
D:---------------------------|
A:---------------------------|(1 time)
E:-7-7-x-5-5-x-4-4-x-3-3-3---|
little bit of violin, then
During Guitar Solo:
G:----------------------------D:----------------------------A:----------------------------E:-7--7--10--10--3--3--2-2-2-2G:---------------------------------------|
D:---------------------------------------|
A:---------------10-10-10-10-10-9-7------|(4 times)
E:-7--7--10--10---------------------10-9-|

Chorus:
G:----------------------------------------------------------|
D:----------------------------------------------------------|
A:----------------------------------------------------------|(1 time)
E:-0-0-0-0--0-0--2-2-2-2--2-2-7--7-7-5--5-5-4-4-4-4-3-3-3-0-|
G:---------------------------------|
D:---------------------------------|
A:---------------------------------|
E:-0-0-0-0-0-0-0-0-2-2-2-2-2-2-2-2-|
Outro:
G:----------------------------D:----------------------------A:----------------------------E:-7--7--10--10--3--3--2-2-2-2G:---------------------------------------|
D:---------------------------------------|
A:---------------10-10-10-10-10-9-7------|(3 times)
E:-7--7--10--10---------------------10-9-|
Then on the last time, Play:
G:----------------------------D:----------------------------A:----------------------------E:-7--7--10--10--3--3--2-2-2-2G:----------------------|
D:----------------------|
A:----------------------|
E:-7--7--5-5-5-5-4-4-4--|
Wake Me Up When September Ends Bass Tab by Green Day, www.Ultimate-Guitar.Com
----------------------------------------------------------------IDIOT)

<< GREEN DAY >> - WAKE ME UP WHEN SEPTEMBER ENDS (AMERICAN
-------------------------------------------------------------

----[ Tabber: LUIZ MANZANO (BRASIL) ]
[ e-mail: lukdeluca@yahoo.com.br ]
Intro (guitar and vocal)
(>> continuation)
"Wake me up when september ends..."
G|---------------------------------------|
D|---------------------------------------|
A|3333333333333333----------------2/10---|
E|----------------3333333333333333-------| >>

>> "Ring out the bells again..."
G|-------------------------------9-------7---|
D|-----12------------12-------9-------7------|
A|10-10--10-10-10--99--999--77-77---55-55----|
E|-------------------------------------------| >>
>> "Wake me up when september ends..."
G|----------------------------------------|
D|----------------------------------------|
A|3333333333333333------------------------|
E|----------------3333333333333333-2222---| >>
>> "Here comes the rain again..."
G|-------------------------------------------------------7--7-------|
D|------------------------------------------------------------------|
A|-------2222222-333333-----------------2222222-333333-55-55-5/10---|
E|0000000--------------3-33-2-22-0000000----------------------------| >>
>> "As my memory rests..."
G|-------------------------------9-------7---|
D|-----12------------12-------9-------7------|
A|10-10--10-10-10--99--999--77-77---55-55----|
E|-------------------------------------------| >>
>> "Wake me up when september ends..."
G| ----------------------------------------|
D|----------------------------------------|
A|3333333333333333------------------------|
E|----------------3333333333333333-2222---| >>
>> Solo...
G|-----------------------------------------------------7777777777777777777777777777777---|
D|----------------------5-55-444---------------------------------------------------------|
A|-------2222222-333333-----------------2222222-333333-5555555555555555555555555555555---|
E|0000000-----------------------0000000--------------------------------------------------| >>
(only guitar and vocal)
>> "Wake me up when september ends..."
G|---------------------------------------|
D|---------------------------------------|
A|3333333333333333----------------2/10---|
E|----------------3333333333333333-------| >>
>> "like my fathers come to pass..."
G|-------------------------------9-------7---|
D|-----12------------12-------9-------7------|
A|10-10--10-10-10--99--999--77-77---55-55----|
E|-------------------------------------------| >>
>> "Wake me up when september ends..." (repeat 3x)
G|--------------------------------------|
D|--------------------------------------|

A|3333333333333333------------------0---|
E|----------------333333333333333-35----|
Warning Bass Tab by Green Day, www.Ultimate-Guitar.Com
WARNING BY GREENDAY
INTRO/VERSE/BRIDGE/OUTRO
G--------------------------------------------------D-------------------4-5-5-4------------------------A-----------4-5-5-7---------7-5-5-4----------------E-----5-5-7-------------------------7--------------CHORUS
G--------------------------------------------------D--------------------------------------------------A----------4---------------4-----------------------E--------5---5-3-0-----5-5---5-3-0-----------------Hitchin A Ride Tab by Green Day, www.Ultimate-Guitar.Com
this is the official tab right out of the book. this tab may seem a little long
but its totally perfect with the strummings and everything.
standard tuning
.=palm mute
tr=trill (hammer on and pull off as fast as possible between notes indicated
intro: (violin arranged for guitar
tr~~~~
e------------------------------------------------------b------------------------------------------------------g------------------------8-----------------------------d------------8h9----11-------11----9----8(9)-----------a----9h10--------------------------------------10------e------------------------------------------------------intro: (guitar)
e-----------------------------------------------------------------------b-----------------------------------------------------------------------g-----------------------------------------------------------------------d-----------------------------------------------------------------------a-99-77-66-555/-99-77-66-555/-------------------------------------------e-77-55-44-333/-77-55-44-333/-------------------------------------------.. .. .. ... .. .. .. ...
verse 1 and 2:
e-------------------------------------------------------------------------b-------------------------------------------------------------------------g-------------------------------------------------------------------------d-------------------------------------------------------------------------a-99-77-66-555/--99-77-66-555/-99-77-66-555/-99-77-66-555/-99-77-66-555/--e-77-55-44-333/--77-55-44-333/-77-55-44-333/-77-55-44-333/-77-55-44-333/--.. .. .. ...
.. .. .. ... .. .. .. ... .. .. .. ... .. .. .. ...
e-------------------------------------------------------b--------------------------------------------------------

g-------------------------------------------------------d-------------------------------------------------------a-99-77-66-555/-99-77-66-555/-99-77---------------------e-77-55-44-333/-77-55-44-333/-77-55---------------------.. .. .. ... .. .. .. ... .. ..
pre-verse:
e-------------------------------------------------------------------------b-------------------------------------------------------------------------g-------------------------------------------------------------------------d-------------------------------------------------------------------------a-666666-777777-99-77-66-555/-99-77-66-555/-99-77-66-555/-99-77-66--------e-444444-555555-77-55-44-333/-77-55-44-333/-77-55-44-333/-77-55-44--------verse 2:
pre-chorus:
e-----------------------------------------------------------------------------b-----------------------------------------------------------------------------g-----------------------------------------------------------------------------d-----------------------------------------------------------------------------a-666666-777777-99-77-66-555/-99-77-66-555/-99-77-66-555/-999-7777-6666-5555--e-444444-555555-77-55-44-333/-77-55-44-333/-77-55-44-333/-777-5555-4444-3333--chorus:
e-----------------------------------------------------------------------------b-----------------------------------------------------------------------------g-----------------------------------------------------------------------------d-----------------------------------------------------------------------------a-222222-444444-999-777-666-5555-222222-444-----------------------------------e-000000-222222-777-555-444-3333-000000-222-----------------------------------verse 3:
e------------------------------------------------------------------------b------------------------------------------------------------------------g------------------------------------------------------------------------d------------------------------------------------------------------------a-99-77-66-555/-99-77-66-555/-99-77-66-555/-99-77-66-555/-99-77-66-555---e-77-55-44-333/-77-55-44-333/-77-55-44-333/-77-55-44-333/-77-55-44-333---solo:
e-----------------------------------------------------------------------------b-12-12-12-12-12-12-12-12-12-12-12-12/-15-15-15-15-15-15-15-15-15-15-15-15\---g-x--x--x--x--x--x--x--x--x--x--x--x----x--x--x--x--x--x--x--x--x--x--x--x----d-9--9--9--9--9--9--9--9--9--9--9--9-/-12-12-12-12-12-12-12-12-12-12-12-12\---a-----------------------------------------------------------------------------e-----------------------------------------------------------------------------e-----------------------------------------------------------------------------b-12-12-12-12-12-12-12-12-12-12-12-12-8-8-8-8-8-8-7-7-7-7-7-7-----------------g-x--x--x--x--x--x--x--x--x--x--x--x--x-x-x-x-x-x-x-x-x-x-x-x-----------------d-9--9--9--9--9--9--9--9--9--9--9--9--5-5-5-5-5-5-4-4-4-4-4-4-----------------a-----------------------------------------------------------------------------e-----------------------------------------------------------------------------e-----------------------------------------------------------------------------b-12-12-12-12-12-12-12-12-12-12-12-12/-15-15-15-15-15-15-15-15-15-15-15-15----g-x--x--x--x--x--x--x--x--x--x--x--x----x--x--x--x--x--x--x--x--x--x--x--x-----

d-9--9--9--9--9--9--9--9--9--9--9--9-/-12-12-12-12-12-12-12-12-12-12-12-12----a-----------------------------------------------------------------------------e-----------------------------------------------------------------------------~~hold~bend~~~~~~
e-----------------------------------------------------------------------------b-17b-17b-17b-17b-17b-17b-17b-17b-17b-17b-17b-17b-17-17-17-17-17-17-----------g--x---x---x---x---x---x---x---x---x---x---x---x---x--x--x--x--x--x-----------d-14b-14b-14b-14b-14b-14b-14b-14b-14b-14b-14b-14b-14-14-14-14-14-14-----------a-----------------------------------------------------------------------------e-----------------------------------------------------------------------------e-----------------------------------------------------------------------------b-17-15-12-15-17-15-12-15-17-15-12-10-12-15-12-10-12-15-17-15-12-15-17-15-----g--x--x--x--x--x--x--x--x--x--x--x--x--x--x--x--x--x--x--x--x--x--x--x--x-----d-14-12--9-12-14-12--9-12-14-12--9--7--9-12--9--7--9-12-14-12--9-12-14-12-----a-----------------------------------------------------------------------------e-----------------------------------------------------------------------------e-----------------------------------------------------------------------------b-17b-17b-17b-17b-17b-17b-17b-17b-17b-17b-17b-17b-----------------------------g--x---x---x---x---x---x---x---x---x---x---x---x------------------------------d-14b-14b-14b-14b-14b-14b-14b-14b-14b-14b-14b-14b-----------------------------a-----------------------------------------------------------------------------e-----------------------------------------------------------------------------~~~~~~~~~~~~~~~hold~bend~~~~~~~~~~~~
e-------------------------------------------------b-------------------------------------------------g-17-17-17-17-17-17-17-17-17-17-17-17-------------d--x--x--x--x--x--x--x--x--x--x--x--x-------------a-14-14-14-14-14-14-14-14-14-14-14-14-------------e-------------------------------------------------chorus
outro: x4 (also played by another guitar during solo)
e-----------------------------------------------------------------------b-----------------------------------------------------------------------g-----------------------------------------------------------------------d-----777---------------------------------------------------------------a-999-555-555-444-------------------------------------------------------e-777-----333-222-------------------------------------------------------on fourth time the other guitar does this
~hold~bend~
e-----------------------------------------------------------------------------b-17b-17b-17b-17b-17b-17b-17b-17b-17b-17b-17b-17b-17-17-17-17-----------------g--x---x---x---x---x---x---x---x---x---x---x---x---x--x--x--x-----------------d-14b-14b-14b-14b-14b-14b-14b-14b-14b-14b-14b-14b-14-14-14-14-----------------a-----------------------------------------------------------------------------e-----------------------------------------------------------------------------end on:
e-4-------b-4-------g-4-------d-4-------a-2--------

e-2-------Another You
Riff A (intro)
e|-7-----7---7-----|-------------0-|---------2-2h3p2p0-|-0---------0-----|
B|---0-------------|-1-------3-----|-3-----------------|---0---------0---|
G|-----0-----------|---0---0---0---|---2---2-----------|---------------0-|
D|-----------------|-----2---------|-----4-------------|-----------------|
A|-----------------|-3-------------|-------------------|-----2-----------|
E|-0-------0---2\3-|---------------|-------------------|-------3-0-------|
e|-7-----7---7-----|-------------0-|---------2-2h3p2p0-|-3-----5-3-------|
B|---0-------------|-1-------3-----|-3-----------------|---0-------0---0-|
G|-----0-----------|---0---0---0---|---2---2-----------|-----0-------0---|
D|-----------------|-----2---------|-----4-------------|-----------------|
A|-----------------|-3-------------|-------------------|-----------------|
E|-0-------0---2\3-|---------------|-------------------|-0---------------|
Riff B
e|-12-----10-8---7---|-8-----7-5-------|---------2-2h3p0-|-3-----5-3-------|
B|----0--------0---0-|---5-------8-7-5-|-------0---------|---0-------0---0-|
G|------0------------|-----5-----------|-----2-----------|-----0-------0---|
D|-------------------|-----------------|---1-------------|-----------------|
A|-------------------|-0---------------|-2---------------|-----------------|
E|-0-----------------|-----------------|-----------------|-0---------------|
e|-12-----10-8---7---|-8-----7-5-------|---------2-2h3p0-|---0-------|
B|----0--------0---0-|---5-------8-7-5-|-------0---------|-0---------|
G|------0------------|-----5-----------|-----1-----------|-----------|
D|-------------------|-----------------|---1-------------|-----------|
A|-------------------|-0---------------|-2---------------|-----2-----|
E|-0-----------------|-----------------|-----------------|-0-----3-0-|
Riff C (2x)
e|-15-----14-15---14----|---------------------|----------10-12----10----|-8-----57-------|
B|----0---------0----12-|-13------12-13-------|-10----10-------10----10-|--0-------0---0-|
G|------0---------------|----9----------9----9|----11-------------------|----0-------0---|
D|----------------------|------10---------10--|-0----------------------|-----------------|
A|----------------------|0-------------------|-------------------------|-----------------|
E|-0--------------------|---------------------|-------------------------|0---------------|
repeat Riff B
Riff D (2x)
e|-7------7-7-----7-|-8-----8-8-----|-10-10-10-10-10-10-10-|-8---7h8-5-7-------|
B|-----8--------8---|-----5-------5-|----------------------|---0---------0---0-|
G|---9--------9-----|---5-------5---|-7--7--7--7--7--7--7--|-0-------------0---|
D|------------------|---------------|----------------------|-------------------|
A|------------------|---------------|----------------------|-------------------|
E|------------------|---------------|----------------------|-------------------|
Riff E
e|-12-----10-8---7---|-8-----7-5-------|---------2-2h3p0-|-3/5-5/7-7-------|

B|----0--------0---0-|---5-------8-7-5-|-3---------------|-----------0---0-|
G|------0------------|-----5-----------|---2---2---------|-------------0---|
D|-------------------|-----------------|-----4-----------|-----------------|
A|-------------------|-0---------------|-----------------|-----------------|
E|-0-----------------|-----------------|-----------------|-----------------|
e|-12-----10-8---7---|-8-----7-5-------|---------2-2h3p0-|---0-------|
B|----0--------0---0-|---5-------8-7-5-|-3---------------|-0---------|
G|------0------------|-----5-----------|---2---2---------|-----------|
D|-------------------|-----------------|-----4-----------|-----------|
A|-------------------|-0---------------|-----------------|-----2-----|
E|-0-----------------|-----------------|-----------------|-0-----3-0-|
Riff F
e|-5/7-------------|-------------0-|---------2-3-2h3p2p0-|---0---------0-----|
B|-----0-----------|-1-------3-----|-3-------------------|---------------0---|
G|-------0---------|---0---0---0---|---2---2-------------|-----------------0-|
D|-----------------|-----2---------|-----4---------------|-------------------|
A|-----------------|-3-------------|---------------------|------2------------|
E|-0-------0---2\3-|---------------|---------------------|-0------3-0--------|
e|-5/7-------------|-------------0-|---------2---2h3p2p0-|-3---7\5-3-------|
B|-----0-----0-----|-1-------3-----|-3---------0---------|---0-------0---0-|
G|-------0---------|---0---0---0---|---2---2-------------|-------------0---|
D|-----------------|-----2---------|-----4---------------|-----------------|
A|-----------------|-3-------------|---------------------|-----------------|
E|-0-------0---2\3-|---------------|---------------------|-0---------------|
Riff G
e|-12-----10-8---7---|-8-----7-5-------|---------2---2h3p0---|-3-----5-3-------|
B|----0--------0---0-|---5-------8-7-5-|-------0---0---------|---0-------0---0-|
G|------0------------|-----5-----------|-----2---------------|-----0-------0---|
D|-------------------|-----------------|---1-----------------|-----------------|
A|-------------------|-0---------------|-2-------------------|-----------------|
E|-0-----------------|-----------------|---------------------|-0---------------|
e|-12-----10-8---7---|-8-----7-5-------|---------2---2h3-2-0-0-|-------|
B|----0--------0---0-|---5-------8-7-5-|-------0---0-------0---|-------|
G|------0------------|-----5-----------|-----2-----------------|-------|
D|-------------------|-----------------|---1-------------------|-------|
A|-------------------|-0---------------|-2---------------------|-2-----|
E|-0-----------------|-----------------|-----------------------|---3-0-|
Riff H
e|-------------0---|-8-----7-5-------|-------------5-|7---------------------------5---5-----7-5-|
B|-------0-3-----0-|---5-------5---5-|-------5-7-----|---5---8-7-5----5-------------8---5-------|
G|-----------0-----|-----5-------5---|-----7-----7---|-----5-------7-5---5---5-75---------5-----|
D|-----5-----------|-----------------|---7-----------|--------------------5---------------------|
A|---5-------------|-0---------------|-5-------------|0-----------------------------------------|
E|3---------------|-----------------|---------------|------------------------------------------|

e|-------------3---3-|---------5-7-----0---------0--0-----|
B|-----------5---5---|-7-5-7-8-----8-7---------0-----0----|
G|---------5---------|-----------------------0-----0--0---|
D|-------5-----------|---------------------2--------------|
A|-0-2-3-------------|-------------------2----------------|
E|-------------------|-----------------0----------------0-|
Riff Outro
e|-7-----7---7-----|-------------0-|---------2-2h3p2p0-|-0---------0-----|
B|---0-------------|-1-------3-----|-3-----------------|---0---------0---|
G|-----0-----------|---0---0---0---|---2---2-----------|---------------0-|
D|-----------------|-----2---------|-----4-------------|-----------------|
A|-----------------|-3-------------|-------------------|-----2-----------|
E|-0-------0---2\3-|---------------|-------------------|-------3-0-------|
e|-5/7-----------|-------------0-|---------2-2h3p2p0-|-3-----5-3-------|
B|-----0---------|-1-------3-----|-3-----------------|---0-------0---0-|
G|-------0-------|---0---0---0---|---2---2-----------|-----0-------0---|
D|---------------|-----2---------|-----4-------------|-----------------|
A|---------2-----|-3-------------|-------------------|-----------------|
E|-0---------2\3-|---------------|-------------------|-0---------------|
e|-12-----10-8---7---|-8-----7-5-------|---------2-2h3p0-|-3-----5-3-------|
B|----0--------0---0-|---5-------8-7-5-|-------0---------|---0-------0---0-|
G|------0------------|-----5-----------|-----2-----------|-----0-------0---|
D|-------------------|-----------------|---1-------------|-----------------|
A|-------------------|-0---------------|-2---------------|-----------------|
E|-0-----------------|-----------------|-----------------|-0---------------|
e|-12-----10-8---7---|-8-----7-5-------|---------2-------2-|-3-2-0---------|
B|----0--------0---0-|---5-------8-7-5-|-------0---0---0-0-|---------------|
G|------0------------|-----5-----------|-----1-------2---2-|---------------|
D|-------------------|-----------------|---1-------------1-|---------------|
A|-------------------|-0---------------|-2---------------2-|---------2-----|
E|-0-----------------|-----------------|-------------------|-----------3-0-|

try this if you dare!!!!!!!!!
Cromok - Another You Tab by Misc Unsigned Bands, www.Ultimate-Guitar.Com
This is a Song by Cromok. One of the gigantic
(South East Asia).

Heavy Metal Band in Malaysia,

*This is by far the best Cromok Riff ever made ( And it's damn great).*
Too sad it is only music, no lyric... :-)
Riff A (intro)
e|-7-----7---7-----|-------------0-|---------2-2h3p2p0-|-0---------0-----|
B|---0-------------|-1-------3-----|-3-----------------|---0---------0---|
G|-----0-----------|---0---0---0---|---2---2-----------|---------------0-|
D|-----------------|-----2---------|-----4-------------|-----------------|
A|-----------------|-3-------------|-------------------|-----2-----------|
E|-0-------0---2\3-|---------------|-------------------|-------3-0-------|

e|-7-----7---7-----|-------------0-|---------2-2h3p2p0-|-3-----5-3-------|
B|---0-------------|-1-------3-----|-3-----------------|---0-------0---0-|
G|-----0-----------|---0---0---0---|---2---2-----------|-----0-------0---|
D|-----------------|-----2---------|-----4-------------|-----------------|
A|-----------------|-3-------------|-------------------|-----------------|
E|-0-------0---2\3-|---------------|-------------------|-0---------------|
Riff B
e|-12-----10-8---7---|-8-----7-5-------|---------2-2h3p0-|-3-----5-3-------|
B|----0--------0---0-|---5-------8-7-5-|-------0---------|---0-------0---0-|
G|------0------------|-----5-----------|-----2-----------|-----0-------0---|
D|-------------------|-----------------|---1-------------|-----------------|
A|-------------------|-0---------------|-2---------------|-----------------|
E|-0-----------------|-----------------|-----------------|-0---------------|
e|-12-----10-8---7---|-8-----7-5-------|---------2-2h3p0-|---0-------|
B|----0--------0---0-|---5-------8-7-5-|-------0---------|-0---------|
G|------0------------|-----5-----------|-----1-----------|-----------|
D|-------------------|-----------------|---1-------------|-----------|
A|-------------------|-0---------------|-2---------------|-----2-----|
E|-0-----------------|-----------------|-----------------|-0-----3-0-|
Riff C (2x)
e|-15-----14-15---14----|---------------------|----------10-12----10----|-8-----57-------|
B|----0---------0----12-|-13------12-13-------|-10----10-------10----10-|--0-------0---0-|
G|------0---------------|----9----------9----9|----11-------------------|----0-------0---|
D|----------------------|------10---------10--|-0----------------------|-----------------|
A|----------------------|0-------------------|-------------------------|-----------------|
E|-0--------------------|---------------------|-------------------------|0---------------|
Ulang Riff B
Riff D (2x)
e|-7------7-7-----7-|-8-----8-8-----|-10-10-10-10-10-10-10-|-8---7h8-5-7-------|
B|-----8--------8---|-----5-------5-|----------------------|---0---------0---0-|
G|---9--------9-----|---5-------5---|-7--7--7--7--7--7--7--|-0-------------0---|
D|------------------|---------------|----------------------|-------------------|
A|------------------|---------------|----------------------|-------------------|
E|------------------|---------------|----------------------|-------------------|
Riff E
e|-12-----10-8---7---|-8-----7-5-------|---------2-2h3p0-|-3/5-5/7-7-------|
B|----0--------0---0-|---5-------8-7-5-|-3---------------|-----------0---0-|

G|------0------------|-----5-----------|---2---2---------|-------------0---|
D|-------------------|-----------------|-----4-----------|-----------------|
A|-------------------|-0---------------|-----------------|-----------------|
E|-0-----------------|-----------------|-----------------|-----------------|
e|-12-----10-8---7---|-8-----7-5-------|---------2-2h3p0-|---0-------|
B|----0--------0---0-|---5-------8-7-5-|-3---------------|-0---------|
G|------0------------|-----5-----------|---2---2---------|-----------|
D|-------------------|-----------------|-----4-----------|-----------|
A|-------------------|-0---------------|-----------------|-----2-----|
E|-0-----------------|-----------------|-----------------|-0-----3-0-|
Riff F
e|-5/7-------------|-------------0-|---------2-3-2h3p2p0-|---0---------0-----|
B|-----0-----------|-1-------3-----|-3-------------------|---------------0---|
G|-------0---------|---0---0---0---|---2---2-------------|-----------------0-|
D|-----------------|-----2---------|-----4---------------|-------------------|
A|-----------------|-3-------------|---------------------|------2------------|
E|-0-------0---2\3-|---------------|---------------------|-0------3-0--------|
e|-5/7-------------|-------------0-|---------2---2h3p2p0-|-3---7\5-3-------|
B|-----0-----0-----|-1-------3-----|-3---------0---------|---0-------0---0-|
G|-------0---------|---0---0---0---|---2---2-------------|-------------0---|
D|-----------------|-----2---------|-----4---------------|-----------------|
A|-----------------|-3-------------|---------------------|-----------------|
E|-0-------0---2\3-|---------------|---------------------|-0---------------|
Riff G
e|-12-----10-8---7---|-8-----7-5-------|---------2---2h3p0---|-3-----5-3-------|
B|----0--------0---0-|---5-------8-7-5-|-------0---0---------|---0-------0---0-|
G|------0------------|-----5-----------|-----2---------------|-----0-------0---|
D|-------------------|-----------------|---1-----------------|-----------------|
A|-------------------|-0---------------|-2-------------------|-----------------|
E|-0-----------------|-----------------|---------------------|-0---------------|
e|-12-----10-8---7---|-8-----7-5-------|---------2---2h3-2-0-0-|-------|
B|----0--------0---0-|---5-------8-7-5-|-------0---0-------0---|-------|
G|------0------------|-----5-----------|-----2-----------------|-------|
D|-------------------|-----------------|---1-------------------|-------|
A|-------------------|-0---------------|-2---------------------|-2-----|
E|-0-----------------|-----------------|-----------------------|---3-0-|
Riff H
e|-------------0---|-8-----7-5-------|-------------5-|7---------------------------5---5-----7-5-|
B|-------0-3-----0-|---5-------5---5-|-------5-7-----|---5---8-7-5----5-------------8---5-------|
G|-----------0-----|-----5-------5---|-----7-----7---|-----5-------7-5---5---5-75---------5-----|
D|-----5-----------|-----------------|---7-----------|--------------------5---------------------|
A|---5-------------|-0---------------|-5-------------|-

0-----------------------------------------|
E|3---------------|-----------------|---------------|------------------------------------------|
e|-------------3---3-|---------5-7-----0---------0--0-----|
B|-----------5---5---|-7-5-7-8-----8-7---------0-----0----|
G|---------5---------|-----------------------0-----0--0---|
D|-------5-----------|---------------------2--------------|
A|-0-2-3-------------|-------------------2----------------|
E|-------------------|-----------------0----------------0-|
Riff Outro
e|-7-----7---7-----|-------------0-|---------2-2h3p2p0-|-0---------0-----|
B|---0-------------|-1-------3-----|-3-----------------|---0---------0---|
G|-----0-----------|---0---0---0---|---2---2-----------|---------------0-|
D|-----------------|-----2---------|-----4-------------|-----------------|
A|-----------------|-3-------------|-------------------|-----2-----------|
E|-0-------0---2\3-|---------------|-------------------|-------3-0-------|
e|-5/7-----------|-------------0-|---------2-2h3p2p0-|-3-----5-3-------|
B|-----0---------|-1-------3-----|-3-----------------|---0-------0---0-|
G|-------0-------|---0---0---0---|---2---2-----------|-----0-------0---|
D|---------------|-----2---------|-----4-------------|-----------------|
A|---------2-----|-3-------------|-------------------|-----------------|
E|-0---------2\3-|---------------|-------------------|-0---------------|
e|-12-----10-8---7---|-8-----7-5-------|---------2-2h3p0-|-3-----5-3-------|
B|----0--------0---0-|---5-------8-7-5-|-------0---------|---0-------0---0-|
G|------0------------|-----5-----------|-----2-----------|-----0-------0---|
D|-------------------|-----------------|---1-------------|-----------------|
A|-------------------|-0---------------|-2---------------|-----------------|
E|-0-----------------|-----------------|-----------------|-0---------------|
e|-12-----10-8---7---|-8-----7-5-------|---------2-------2-|-3-2-0---------|
B|----0--------0---0-|---5-------8-7-5-|-------0---0---0-0-|---------------|
G|------0------------|-----5-----------|-----1-------2---2-|---------------|
D|-------------------|-----------------|---1-------------1-|---------------|
A|-------------------|-0---------------|-2---------------2-|---------2-----|
E|-0-----------------|-----------------|-------------------|-----------3-0-|