Artist: I Am Ghost

Song: Our Friend Lazarus Sleeps
Album: Lovers Requiem
Tabbed by: Dru</3
Key:
/ slide up
\ slide down
h hammer-on
p pull-off
~ let ring
* harmonic
x Mute note
. Palm Mute
Intro:
Guitar 1 (distorted)
D|------------------------------------------------------------------------|
A|------------------------------------------------------------------------|
F|------------------------------------------------------------------------|
C|--0~----------------------------00--------------------------------------|
G|--0~----------------------------00--------------------------------------|
C|--0~----------------------------00--------------------------------------|
..
Guitar 2 (Distorted)
D|------------------------------------------------------------------------|
A|------------------------------------------------------------------------|
F|------------------------------------------------------------------------|
C|---------------------------7h8p7--------------------------7*------------|
G|--------7---87----10--78--------------7----87--10-------------------|
C|-0-78-0--8-0--8-----8----------0-78-0--8-0----8---8-00---------------|
.
. .
.
.
.
.
.
..
Verse part 1:
Both Guitars (Distorted)
D|------------------------------------------------------------------------|
A|------------------------------------------------------------------------|
F|------------------------------------------------------------------------|
C|-0-78-0-57-0-5-3-2-32--0-23-0-32-0-5-3-2--------------------------------|
G|-0-78-0-57-0-5-3-2-32--0-23-0-32-0-5-3-2-0------------------------------|
C|-0-78-0-57-0-5-3-2-32--0-23-0-32-0-5-3-2-0-2*---------------------------|
2x
Verse Part 2:
Both Guitars (Distorted)
D|------------------------------------------------------------------------|
A|------------------------------18-18----------------------------181818---|
F|------------------------------16-16----------------------------161616---|
C|-2/33-5-3-2-0--2/33-5-3-2-0---------2/33-5-3-2-0--2/33-5-3-2-0----------|
G|-2/33-5-3-2-0--2/33-5-3-2-0---------2/33-5-3-2-0--2/33-5-3-2-0----------|
C|-2/33-5-3-2-0--2/33-5-3-2-0---------2/33-5-3-2-0--2/33-5-3-2-0----------|
Chorus:
Guitar 1 (Distorted)
D|------------------------------------------------------------------------|
A|------------------------------------------------------------------------|
F|-------------------------------------9-----10---------------------------|
C|-00000000-5555-333-222--00000000----------------------------------------|
G|-00000000-5555-333-222--00000000----------------------------------------|
C|-00000000-5555-333-222--00000000-555---888------------------------------|

...
...
Guitar 2 (Distorted)
D|------------------------------------------------------------------------|
A|------------------------------------------------------------------------|
F|-----------------14-12--------------------------------------------------|
C|-00000000-5555---x--x---00000000----------------------------------------|
G|-00000000-5555---12-10--00000000----------------------------------------|
C|-00000000-5555----------00000000----------------------------------------|
Both Guitars (Distorted)
D|------------------------------------------------------------------------|
A|------------------------------------------------------------------------|
F|------------------------------------------------------------------------|
C|-88888888-77777777-33333333-00000000-888888888-1010101010101010-77777777|
G|-88888888-77777777-33333333-00000000-888888888-1010101010101010-77777777|
C|-88888888-77777777-33333333-00000000-888888888-1010101010101010-77777777|
After Chorus 1:
D|-----------------12~----------------------------------------------------|
A|-----------------11~----------------------------------------------------|
F|-----------------9~-----------------------------------------------------|
C|-0-0-0-0-0000000--------------------------------------------------------|
G|-0-0-0-0-0000000--------------------------------------------------------|
C|-0-0-0-0-0000000--------------------------------------------------------|
After Chorus 2:
D|------------------------------------------------------------------------|
A|------------------------------------------------------------------------|
F|------------------------------------------------------------------------|
C|-0-0-0-0-00000000-------------------------------------------------------|
G|-0-0-0-0-00000000-------------------------------------------------------|
C|-0-0-0-0-00000000-------------------------------------------------------|
Bridge:
Both Guitars (Distorted)
D|------------------------|-----------------------------------------------|
A|------------------------|-----------------------------------------------|
F|------------------------|-----------------------------------------------|
C|-00-3-0-5-6-00-3-0-5653-|--0-3-5-6-5-3-0-3-5-6-5-3-0-3-5-6-5-3-0-3-5-6-5|
G|-00-3-0-5-6-00-3-0-5653-|--0-3-5-6-5-3-0-3-5-6-5-3-0-3-5-6-5-3-0-3-5-6-5|
C|-00-3-0-5-6-00-3-0-5653-|--0-3-5-6-5-3-0-3-5-6-5-3-0-3-5-6-5-3-0-3-5-6-5|
4x
Breakdown
Play chorus again
before repeating play
Both Guitars (Distorted)
D|------------------------------------------------------------------------|
A|------------------------------------------------------------------------|
F|------------------------------------------------------------------------|
C|--7--5--8--7--5--3------------------------------------------------------|
G|--5--3--8--7--5--3------------------------------------------------------|
C|--------8--7--5--3------------------------------------------------------|
After Final Chorus
Both Guitars:
D|------------------------------------------------------------------------|
A|------------------------------------------------------------------------|
F|------------------------------------------------------------------------|

C|-0000-0-0-0-0000--0000-0-0-0-0000-6666-6-6-6-6666-6666-6-6-6-6-000------|
G|-0000-0-0-0-0000--0000-0-0-0-0000-6666-6-6-6-6666-6666-6-6-6-6-000------|
C|-0000-0-0-0-0000--0000-0-0-0-0000-6666-6-6-6-6666-6666-6-6-6-6-000------|
Order:
Intro
Verse pt 1
Verse pt 2
Chorus
Verse pt 1
Verse pt 2
Chorus
Bridge
Chorus 2x
It's a really awsome song... Enjoy!

Sign up to vote on this title
UsefulNot useful