You are on page 1of 6

I Dont Love You Tab by My Chemical Romance, www.Ultimate-Guitar.

Com

TRACK NO. 6 � I DON�T LOVE YOU

UPDATES:
18/12/06 - Fixed some parts on the tone change in the verses and on the solo. :)

Ins.:
Gtr 1 � Frank Iero (right speaker)
Gtr 2 � Ray Toro (left speaker)

This is such a very beautiful song...

I. INTRO

Gtr 2
e|--12----12----12----12-----|--12----12----12----12-----|
B|--13----13----13----13-----|--13----13----13----13-----|
G|-----12----12----12----12--|-----12----12----12----12--|
D|---------------------------|---------------------------|
A|---------------------------|---------------------------|
E|---------------------------|---------------------------|

Then,
Gtr 1
e|-------------------|-------------------|
B|-------------------|-------------------|
G|--5-5-5-5-5-5-5-5--|--5-5-5-5-5-5-5-5--|
D|--5-5-5-5-5-5-5-5--|--5-5-5-5-5-5-5-5--|
A|--3-3-3-3-3-3-3-3--|--3-3-3-3-3-3-3-3--|
E|-------------------|-------------------|
Gtr 2
e|--12----12----12----12-----|--13----13----12----12-----|
B|--13----13----13----13-----|--13----13----13----13-----|
G|-----12----12----12----12--|-----12----12----12----12--|
D|---------------------------|---------------------------|
A|---------------------------|---------------------------|
E|---------------------------|---------------------------|

Gtr 1
e|-------------------|-------------------|
B|-------------------|-------------------|
G|-------------------|-------------------|
D|--7-7-7-7-7-7-7-7--|--7-7-7-7-7-7-7-7--|
A|--7-7-7-7-7-7-7-7--|--7-7-7-7-7-7-7-7--|
E|--5-5-5-5-5-5-5-5--|--5-5-5-5-5-5-5-5--|
Gtr 2
e|--12----12----12----12-----|--13----13----12----12-----|
B|--13----13----13----13-----|--13----13----13----13-----|
G|-----12----12----12----12--|-----12----12----12----12--|
D|---------------------------|---------------------------|
A|---------------------------|---------------------------|
E|---------------------------|---------------------------|

Gtr 1
e|-------------------|-------------------|
B|-------------------|-------------------|
G|-------------------|-------------------|
D|--5-5-5-5-5-5-5-5--|--5-5-5-5-5-5-5-5--|
A|--5-5-5-5-5-5-5-5--|--5-5-5-5-5-5-5-5--|
E|--3-3-3-3-3-3-3-3--|--3-3-3-3-3-3-3-3--|
Gtr 2
e|--10----10----10----10-----|--10----10----10----10-----|
B|--13----13----13----13-----|--12----12----13----13-----|
G|-----12----12----12----12--|-----12----12----12----12--|
D|---------------------------|---------------------------|
A|---------------------------|---------------------------|
E|---------------------------|---------------------------|

Gtr 1
e|-------------------|-------------------|
B|-------------------|-------------------|
G|-------------------|-------------------|
D|--3-3-3-3-3-3-3-3--|--5-5-5-5-5-5-5-5--|
A|--3-3-3-3-3-3-3-3--|--5-5-5-5-5-5-5-5--|
E|--1-1-1-1-1-1-1-1--|--3-3-3-3-3-3-3-3--|
Gtr 2
e|--12----12----12----12-----|--10----10----------10-----|
B|---------------------------|--------------12-----------|
G|-----12----12----12----12--|-----12----12----12----12--|
D|---------------------------|---------------------------|
A|---------------------------|---------------------------|
E|---------------------------|---------------------------|

II. VERSE 1

Gtr 1
e|------------|---------------|-----------------|----------|
B|------------|---------------|-----------------|----------|
G|--5~~~~-----|---------------|-----------------|----------|
D|--5~~~~-----|---------------|--7~~~~----------|----------|
A|--3~~~~-----|---------------|--7~~~~----------|----------|
E|------------|---------------|--5~~~~----------|----------|
Gtr 2
e|------------|---------------|-----------------|--------|
B|------------|---------------|-----------------|--------|
G|--10--9--7--|--9--9-7-------|--10h12-9--7--9--|--10-9--|
D|------------|---------10~~--|-----------------|--------|
A|------------|---------------|-----------------|--------|
E|------------|---------------|-----------------|--------|

Gtr 1
e|----------------|-------|-----------------|---------------|
B|----------------|-------|-----------------|---------------|
G|----------------|-------|--5~~~~----------|---------------|
D|--5~~~~---------|-------|--5~~~~----------|----------xxx--|
A|--5~~~~---------|-------|--3~~~~----------|----------xxx--|
E|--3~~~~---------|-------|-----------------|---------------|
Gtr 2
e|---------------|-------|-----------------|---------------|
B|---------------|-------|-----------------|---------------|
G|--------9~~~~--|-------|---------9-10~~--|--12~~~~--xxx--|
D|--10s12--------|-------|--9-10~~---------|----------xxx--|
A|---------------|-------|-----------------|----------xxx--|
E|---------------|-------|-----------------|---------------|
Gtr 1
e|----------------------------------------------|
B|----------------------------------------------|
G|--9-99-9-7-7/9\7-5-5-10-10--9-7-7/9\7-5-5-12--|
D|--x-xx-x-x-x-x-x-x-x--x--x--x-x-x-x-x-x-x--x--|
A|--7-77-7-5-5/7\5-3-3--8--8--7-5-5-7-5-3-3-10--|
E|----------------------------------------------|
(continued)
e|---------------------------------------------|
B|---------------------------------------------|
G|--12-1010-99-77-7-1212-10-9-9/10\9-77-99-77--|
D|---x--x-x-xx-xx-x--x-x--x-x-x--x-x-xx-xx-xx--|
A|--10--8-8-77-55-5-1010--8-7-7/-8\7-55-77-55--|
E|---------------------------------------------|
(continued)
e|-------------------------------------------------------------------|
B|-------------------------------------------------------------------|
G|--5-5-5-5-5-5-5-5-5-5-5-5-5-5-5-5-4-4-4-4-4-4-4-4-4-4-4-4-4-4-4-4--|
D|--x-x-x-x-x-x-x-x-x-x-x-x-x-x-x-x-x-x-x-x-x-x-x-x-x-x-x-x-x-x-x-x--|
A|--3-3-3-3-3-3-3-3-3-3-3-3-3-3-3-3-2-2-2-2-2-2-2-2-2-2-2-2-2-2-2-2--|
E|-------------------------------------------------------------------|
(continued)
e|---------------------------------------------------------|
B|---------------------------------------------------------|
G|--5/7-7-7-7/9-9-9-9\7-7-7-7/101010-9-9-9-7-7/9\7-5~--12--|
D|--x-x-x-x-x-x-x-x-x-x-x-x-x--x-x-x-x-x-x-x-x-x-x-x----x--|
A|--3/5-5-5-5/7-7-7-7\5-5-5-5/-8-8-8-7-7-7-5-5/7\5-3~--10--|
E|---------------------------------------------------------|

Gtr 2
e|-----------------------------------|-----------------------------------|
B|-----------------------------------|-----------------------------------|
G|--5-5-5-5-5-5-5-5-5-5-5-5-5-5-5-5--|-----------------------------------|
D|--5-5-5-5-5-5-5-5-5-5-5-5-5-5-5-5--|--7-7-7-7-7-7-7-7-7-7-7-7-7-7-7-7--|
A|--3-3-3-3-3-3-3-3-3-3-3-3-3-3-3-3--|--7-7-7-7-7-7-7-7-7-7-7-7-7-7-7-7--|
E|-----------------------------------|--5-5-5-5-5-5-5-5-5-5-5-5-5-5-5-5--|
(continued)
e|-----------------------------------|-----------------------------------|
B|-----------------------------------|-----------------------------------|
G|-----------------------------------|--5-5-5-5-5-5-5-5-5-5-5-5-5-5-5-5--|
D|--5-5-5-5-5-5-5-5-5-5-5-5-5-5-5-5--|--5-5-5-5-5-5-5-5-5-5-5-5-5-5-5-5--|
A|--5-5-5-5-5-5-5-5-5-5-5-5-5-5-5-5--|--3-3-3-3-3-3-3-3-3-3-3-3-3-3-3-3--|
E|--3-3-3-3-3-3-3-3-3-3-3-3-3-3-3-3--|-----------------------------------|

III. REFRAIN

Gtr 1
e|----------------------------------|---------------------------|
B|----------------------------------|---------------------------|
G|--141414141212101012121212991010--|--10--9--7--9-5~~-5-5-7-9--|
D|---x-x-x-x-x-x-x-x-x-x-x-xxx-x-x--|---x�-x--x--x-x~~-x-x-x-x--|
A|--121212121010-8-81010101077-8-8--|---8--7--5--7-3~~-3-3-5-7--|
E|----------------------------------|---------------------------|
Gtr 2
e|-----------------------------------|-----------------------------------|
B|-----------------------------------|-----------------------------------|
G|-----------------------------------|-----------------------------------|
D|--3-3-3-3-3-3-3-3-5-5-5-5-6-6-6-6--|--7-7-7-7-7-7-7-7-3-3-3-3-3-3-3-3--|
A|--3-3-3-3-3-3-3-3-5-5-5-5-7-7-7-7--|--7-7-7-7-7-7-7-7-3-3-3-3-3-3-3-3--|
E|--1-1-1-1-1-1-1-1-3-3-3-3-4-4-4-4--|--5-5-5-5-5-5-5-5-1-1-1-1-1-1-1-1--|

Gtr 1
e|-------------------------------|---------|
B|-------------------------------|---------|
G|--9-7-5----5-7-9-7-5-4~~--4-7--|--5~~~~--|
D|--x-x-x----x-x-x-x-x-x----x-x--|--5~~~~--|
A|--7-5-3~~--3-5-7-5-3-2~~--2-5--|--3~~~~--|
E|-------------------------------|---------|
Gtr 2
e|-----------------------------------|---------|
B|-----------------------------------|---------|
G|-----------------------------------|--5~~~~--|
D|--3-3-3-3-3-3-3-3-5-5-5-5-5-5-5-5--|--5~~~~--|
A|--3-3-3-3-3-3-3-3-5-5-5-5-5-5-5-5--|--3~~~~--|
E|--1-1-1-1-1-1-1-1-3-3-3-3-3-3-3-3--|---------|

For the verse,


Gtr 1 � repeat VERSE 1

Gtr 2
e|------------------|-------------------|--------------|-------------|
B|------------------|-------------------|--------------|-------------|
G|--7-5-0-5--7-5-0--|--5-7-9-5-7s9-7-5--|--2~-0--------|-------------|
D|------------------|-------------------|-------3-2----|--5-3--------|
A|------------------|-------------------|-----------3--|------3-5----|
E|------------------|-------------------|--------------|----------3--|
(continued)
e|----------------|--------------|
B|----------------|--------------|
G|----------------|---------xxx--|
D|---------2-3~~--|--5~~~~--xxx--|
A|--2-3~~---------|---------xxx--|
E|----------------|--------------|

Gtr 1
e|----------------------------------------------|
B|----------------------------------------------|
G|--9-99-9-7-7/9\7-5-5-10-10--9-7-7/9\7-5-5-12--|
D|--x-xx-x-x-x-x-x-x-x--x--x--x-x-x-x-x-x-x--x--|
A|--7-77-7-5-5/7\5-3-3--8--8--7-5-5-7-5-3-3-10--|
E|----------------------------------------------|
(continued)
e|---------------------------------------------|
B|---------------------------------------------|
G|--12-1010-99-77-7-1212-10-9-9/10\9-77-99-77--|
D|---x--x-x-xx-xx-x--x-x--x-x-x--x-x-xx-xx-xx--|
A|--10--8-8-77-55-5-1010--8-7-7/-8\7-55-77-55--|
E|---------------------------------------------|
(continued)
e|-------------------------------------------------------------------|
B|-------------------------------------------------------------------|
G|--5-5-5-5-5-5-5-5-5-5-5-5-5-5-5-5-4-4-4-4-4-4-4-4-4-4-4-4-4-4-4-4--|
D|--x-x-x-x-x-x-x-x-x-x-x-x-x-x-x-x-x-x-x-x-x-x-x-x-x-x-x-x-x-x-x-x--|
A|--3-3-3-3-3-3-3-3-3-3-3-3-3-3-3-3-2-2-2-2-2-2-2-2-2-2-2-2-2-2-2-2--|
E|-------------------------------------------------------------------|
(continued)
e|-------------------------------------------------------|
B|-------------------------------------------------------|
G|--10\9-9-9-9\7-7-7-7/9-9-9-9/101010-9-9-9-7-7-7-7~-12--|
D|---x-x-x-x-x-x-x-x-x-x-x-x-x--x-x-x-x-x-x-x-x-x-x---x--|
A|---8\7-7-7-7\5-5-5-5/7-7-7-7/-8-8-8-7-7-7-5-5-5-5~-10--|
E|-------------------------------------------------------|
Gtr 2
e|-----------------------------------|-----------------------------------|
B|-----------------------------------|-----------------------------------|
G|--5-5-5-5-5-5-5-5-5-5-5-5-5-5-5-5--|-----------------------------------|
D|--5-5-5-5-5-5-5-5-5-5-5-5-5-5-5-5--|--7-7-7-7-7-7-7-7-7-7-7-7-7-7-7-7--|
A|--3-3-3-3-3-3-3-3-3-3-3-3-3-3-3-3--|--7-7-7-7-7-7-7-7-7-7-7-7-7-7-7-7--|
E|-----------------------------------|--5-5-5-5-5-5-5-5-5-5-5-5-5-5-5-5--|
(continued)
e|-----------------------------------|-----------------------------------|
B|-----------------------------------|-----------------------------------|
G|-----------------------------------|--5-5-5-5-5-5-5-5-5-5-5-5-5-5-5-5--|
D|--5-5-5-5-5-5-5-5-5-5-5-5-5-5-5-5--|--5-5-5-5-5-5-5-5-5-5-5-5-5-5-5-5--|
A|--5-5-5-5-5-5-5-5-5-5-5-5-5-5-5-5--|--3-3-3-3-3-3-3-3-3-3-3-3-3-3-3-3--|
E|--3-3-3-3-3-3-3-3-3-3-3-3-3-3-3-3--|-----------------------------------|

[Repeat REFRAIN]

IV. SOLO

Gtr 1
e|------------|------------|-------------|------------|------------|
B|------------|------------|-------------|------------|------------|
G|------------|------------|--5~---4442--|------------|------------|
D|--77777777--|--55555555--|--5~-555552--|--77777777--|--33333333--|
A|--77777777--|--55555555--|--3~-332220--|--77777777--|--33333333--|
E|--55555555--|--33333333--|-------------|--55555555--|--11111111--|
Gtr 2
e|---------------------------|-----------------------------|
B|--10-10-10-10-10-13-13-12--|--12-12-12-12-12-12-12p10p8--|
G|---------------------------|-----------------------------|
D|---------------------------|-----------------------------|
A|---------------------------|-----------------------------|
E|---------------------------|-----------------------------|
(continued)
e|-----------------------|----------------------------------|
B|--8-8-8-6h8-9-9-12-10--|--10-12h13-10-12h13-17^b---15-13--|
G|-----------------------|----------------------------------|
D|-----------------------|----------------------------------|
A|-----------------------|----------------------------------|
E|-----------------------|----------------------------------|
(continued)
e|-------------------15-13-12-13----13-----|--13-12-13--------10-----------|
B|--15--15p13p12--12-------------12----12--|-----------12~-12----12\10-10--|
G|-----------------------------------------|-------------------------------|
D|-----------------------------------------|-------------------------------|
A|-----------------------------------------|-------------------------------|
E|-----------------------------------------|-------------------------------|
End solo on:
Gtr 1
e|-----------|---------|
B|-----------|---------|
G|--5~~~~----|---------|
D|--5~~~~----|---------|
A|--3~~~~----|---------|
E|-----------|---------|
Gtr 2
e|-----------|---------|
B|--10~~--8--|--8~~~~--|
G|-----------|---------|
D|-----------|---------|
A|-----------|---------|
E|-----------|---------|

(The part where he sings �when you go... would you have the guts to say...�, there
is a
playing (?) and I did not tab it yet. Please feel free to PM or comment the
correction.)

V. FINAL REFRAIN

Gtr 1
e|-------------------------------|-----------------------------------|2x
B|-------------------------------|-----------------------------------|
G|--12~~-10~~~--9-9-9-9-7-7-7-7--|--5-5-5-5-5-5-5-5-7-7-7-7-7-7-7-7--|
D|---x~~--x~~~--x-x-x-x-x-x-x-x--|--x-x-x-x-x-x-x-x-x-x-x-x-x-x-x-x--|
A|--10~~--8~~~--7-7-7-7-5-5-5-5--|--3-3-3-3-3-3-3-3-5-5-5-5-5-5-5-5--|
E|-------------------------------|-----------------------------------|
Gtr 2
e|-------------------------------|-----------------------------------|2x
B|-------------------------------|-----------------------------------|
G|--5~~~--4~~~-------------------|-----------------------------------|
D|--5~~~--5~~~--7-7-7-7-5-5-5-5--|--3-3-3-3-3-3-3-3-5-5-5-5-5-5-5-5--|
A|--3~~~--2~~~--7-7-7-7-5-5-5-5--|--3-3-3-3-3-3-3-3-5-5-5-5-5-5-5-5--|
E|--------------5-5-5-5-3-3-3-3--|--1-1-1-1-1-1-1-1-3-3-3-3-3-3-3-3--|

End on:
Both guitars:
e|---------|
B|---------|
G|--5~~~~--|
D|--5~~~~--|
A|--3~~~~--|
E|---------|