Tab by:omanyen@fusemail.

com
( intro is the same as the verse )
I Long see the

sunlight in your hair

----0-----0---|---0------0---|----0-----0-|--0----0---|
----1-----1---|---3------3---|----1-----1-|--3----1---|
----2-----2---|---4------4---|----2-----2-|--4----2---|
-2-----2------|5------5------|-3-----3----|--5----3---|
--------------|--------------|------------|-----------|
--------------|--------------|------------|-----------|
( repeat sequence )
Hello

is it me you're looking for ?

----0-----0---|---0------0-|-----0-----0--|--5--5--5--|
----1-----1---|---3------3-|-----1-----1--|--5--5--5--|
----2-----2---|---4------4-|-----2-----2--|--6--6--6--|
-2-----2------|5------5----|--3-----3-----|--7--7--7--|
--------------|------------|--------------|-----------|
--------------|------------|--------------|-----------|
( CHORUS )
Dm

G

C

F

'cause I wonder where you are, & I wonder what you do
Bb

E

are you somewhere feeling lonely,
or is someone

loving

you

--------0-----------0----------0-----------------------|
--------1-----------3----------5-----------------------|
--------2-----------4----------6-----------------------|
--------3-----------5----------7-----------------------|
-------------------------------------------------------|
-------------------------------------------------------|
( repeat sequence )
Bb

Am

E

I want to tell you so much
LEAD: h = hammer

I love you ( repeat intro )

r = rake(pull-off)

/ = slide up \ = slide down

-----------------------------------|-------------------|
-----------5-h-6-r-5---------------|-------------3/5-3-|
-----4-5-7-----------7-5-h-7-r-5-4-|-4-h-5-r-4-2-------|
---7-------------------------------|-------------------|
-7---------------------------------|-------------------|
-----------------------------------|-------------------|
-----5-5-7-8-5-7-3-5-0-|-------------|-------3---------|
-5/7-------------------|-5-5-5\3-3-1-|-1-h-3---3-------|
-----------------------|-------------|-----------------|
-----------------------|-------------|-----------------|

-----------------------|-7-7-7\5-5-3-|-----------------|
-----------------------|-------------|-----------------|
HARD accent

( here's the tricky part )

--12--13--12\-|-10--12--10\-|-7/8\7---7/8\7---5--3--5--|
--------------|-------------|--------------------------|
--------------|-------------|--------------------------|
--14--14--14\-|-12--12--12\-|-9/10\9--9/10\9--7--5--7--|
--------------|-------------|--------------------------|
--------------|-------------|--------------------------|
con't on next line
-----5-5-7-8-5-7-3-5-0-|-------------|-----------------|
-5/7-------------------|-5-5-5\3-3-1-|-----------------|
-----------------------|-------------|-----------------|
-----------------------|-------------|-----------------|
-----------------------|-7-7-7\5-5-3-|-----------------|
-----------------------|-------------|-----------------|
'cause I know.....
--0---2---3---5---7---8-/-13-----------------3---------|
---------------------------------------------3---------|
---------------------------------------------4---------|
--2---4---5---7---9---10/-15-----------------5---------|
-------------------------------------------------------|
-------------------------------------------------------|