You are on page 1of 1

As you can see below, you have to tune down half a step (Eb,Ab,Db,Gb) to get it

to sound just right, but you can play it with standard tuning (E,A,D,G) as long
as the rest of the band is in the right key! (duh!)
This is the way I play it, it's not necesarily the way Stevie plays it live.
Stevie has a keyboard player doing the melody, so if your in a band with no
keyboard player the bassist and the guitarist should play it. I've seen this tab
bed
on other sites and it is WRONG! This is the CORRECT way how to play it!
Intro (X4)
Gb|----------------------------------------|
Db|----------5------------------5----------|
Ab|----7-5-7---5---5h7------5-7---5---5h7--|
Eb|-0------------7------5-7---------7------|
Verse part 1 (X4)
Gb|----------------------------|
Db|----------------------------|
Ab|---------------------3---4--|
Eb|-0--0--0--0--0--0--2---3----|
Verse part 2 (X4)
Gb|----------------------------------------|
Db|------------------------------7/9--5----|
Ab|----7-5h7-------5---5h7-7-5h7--------7--|
Eb|-0--------5h6h7---7---------------------|
Bridge
Gb|--------------------------------|
Db|--------------------------------|
Ab|--------------------------------|
Eb|-7---7--8---8--7---7--6---6--5--|
Song Structure
Intro
Verse part 1
Verse part 2
Bridge
Verse part 1
Verse part 2
Bridge