You are on page 1of 5

|---------------------|

|HO IMPARATO A SOGNARE|


|---------------------|
GRAZIE A <portina@net4u.it>

Armonica un'ottava sopra


Mi Fa#m11 La2 Mi
---------------------------|------------------|----------------------|-----||
---------------------------|------------------|----------------------|-----||
-----14--13--9-(9)-11--13--|--14------13---9--|--14--13--9-(9)-4--6--|--9--||
---------------------------|------------------|----------------------|-----||
---------------------------|------------------|----------------------|-----||
---------------------------|------------------|----------------------|-----||
Mi Fa#m11 La2 Mi
Ho imparato a sognare che non ero bambino che non ero neanche un' eta'
Fa#m11 La2
Mi
quando un giorno di scuola mi durava una vita e il mio mondo finiva un
po' la'.
La2 Mi7+/Sol# Fa#m11
Mi Mi4Mi
Tra quel prete palloso che ci dava da fare e il pallone che andava
come fosse a motore.
La2 La7+/9 Fa#m11 Si Mi
C'era chi era incapace a sognare e chi sognava gia'.

Mi Fa#m11 La2
Mi
Ho imparato a sognare e ho iniziato a sperare che chi c'ha d'avere
avra'.
Fa#m11 La2
Mi
Ho imparato a sognare quando un sogno e' un cannone, che se sogni ne
ammazzi met&#2957;
La2 Mi7+/Sol# Fa#m11
Mi Mi4Mi
Quando inizia a capire che sei solo in mutande quando inizi a capire
che tutto e' pi?nde.
La2 La7+/9 Fa#m11 Si Mi Mi4 Mi
C'era chi era incapace a sognare e chi sognava gi&#2957;

Fa#m11 Si Mi
La2
Tra una botta che prendo e una botta che do tra un amico
che perdo e un amico che avro'
-------------0---------0---------------------------------------0---------0------
----------------
--10p9----------10p9------------9------------------------10p9------10p9---------
-9--------------
---------------------------8h9----------9------------------------------------8h9
----9-----------
-------------------------------------------9h11------9--------------------------
----------9h11--
--------------------------------------------------------------------------------
----------------
--------------------------------------------------------------------------------
----------------
Fa#m2 Si Mi
La2
che se cado una volta una volta cadro' e da terra, da li'
m'alzero'.
--------------0-------0-----------------------------------------------------
-------10p9-----10p9-----------9---------------------9-----------9----------
--------------------------8h9------9------------8h9-----9-8h9---------------
-9------------------------------------9h11-9------------------------9---11~~~~~
----------------------------------------------------------------------------
----------------------------------------------------------------------------

Fa#m11 La2 Si Mi Mi4 Mi


C'e' che ormai che ho imparato a sognare non smettero'.
Mi Fa#m11 La2
Mi
---------------------------|------------------|----------------------|-----||
---------------------------|------------------|----------------------|-----||
-----14--13--9-(9)-11--13--|--14------13---9--|--14--13--9-(9)-4--6--|--9--||
---------------------------|------------------|----------------------|-----||
---------------------------|------------------|----------------------|-----||
---------------------------|------------------|----------------------|-----||
Mi Fa#m11 La2
Mi
Ho imparato a sognare quando inizi a scoprire che ogni sogni ti porta
piu' in la'
Fa#m11 La2 Mi
cavalcando aquiloni oltre muri e confini ho imparato a sognare di la'.
La2 Mi7+/Sol# Fa#m11
Mi Mi4Mi
Quando tutte le scuse per giocare son buone quando tutta la vita e'
una bella canzone.
La2 La7+/9 Fa#m11 Si
C'era chi era incapace a sognare e chi sognava gia'.

-------------0--0-(0)-------|------------------------------------|
-----------0----0-(0)-------|------------------------------------|
-------1h2------1-(1)-------|---9--(9)--9---------(9)------------|
-----2--------------------9-|-9h11-(11)-9-9----9---9-------------|
---2-----------------/11----|---0--(0)----11-9h11----11\9-7-9/11-|
-0--------------------------|------------------0-----------------|
-------------------------------|-------------------------------|
-------------------------------|-------------------------------|
---9---9--9------------------9-|----9--9--9--------------------|
-9h11--11-9--9----9--------9---|--9h11-11-9-9--------X----2-4--|
---0---0--0--11-9h11--9h11-----|----0--0--0-11-9^9-7--/4-------|
-------------0----0-----0------|-------------------------------|
-------------------------------------------|-9--9--9----------------------|
-4/12-12-12-12\10-10-10-10\9-9-9-9h10-9-10-|-10-10---10------12-12-12-12\-|
-4/13-13-13-13\11-11-11-11\9-9-9-9---(9)---|-9--9-------9/13-13----13-13\-|
-------------------------------------------|------------------------------|
-------------------------------------------|------------------------------|
-------------------------------------------|------------------------------|
Tra una
-------------------------------|------------------------------|-----------------
------|
-------------------------------|------------------------------|-----------------
------|
---9-----9--9----------------9-|-----------9------------------|-4-4-----4------4
-----4|
-9h11--9h11-9-9----9-------9---|-9h11(11)9-9------------------|-4-----4------4--
---4--|
---0-----0--0-11-9h11---/11----|---0-(0)-0-11-9^9-7-7-----7-9\|-2---0-----------
------|
--------------0----0--0/-------|----------------------7/9-----|-----------4-----
-2----|

Fa#m11 Si Mi
La2
botta che prendo e una botta che do tra un amico
che perdo e un amico che avro'
-------------------0---------0---------------------------------------0---------0
----------------------
--------10p9----------10p9------------9------------------------10p9------10p9---
-------9--------------
---------------------------------8h9----------9---------------------------------
---8h9----9-----------
-------------------------------------------------9h11------9--------------------
----------------9h11--
--------------------------------------------------------------------------------
----------------------
--------------------------------------------------------------------------------
----------------------
Fa#m2 Si Mi
La2
che se cado una volta una volta cadro' e da terra, da li'
m'alzero'.
--------------0-------0-----------------------------------------------------
-------10p9-----10p9-----------9---------------------9-----------9----------
--------------------------8h9------9------------8h9-----9-8h9---------------
-9------------------------------------9h11-9------------------------9---11~~~~~
----------------------------------------------------------------------------
----------------------------------------------------------------------------
Fa#m11 La2 Si Mi
C'e' che ormai che ho imparato a sognare non smettero'.
Fa#m11 La2 Si La2
C'e' che ormai che ho imparato a sognare non smettero'.
----------------------------------------------------0-----(0)-|
----------------------------------------------------0-----(0)-|
----------------------------------------------------2-----(2)-|
----------------------------------------------------2-----(2)-|
----------------------------------------------------0-----(0)-|
--------------------------------------------------------------|
-0----------9-----9----|-0-||
----0------------------|-0-||
-------6/9-----9-------|-1-||
-----------------------|-2-||
-----------------------|-2-||
---------------------0-|-0-||