You are on page 1of 49

Amazing Grace

Throwing Muses
C F
mazing grace how
A weet the sound
s

C A# C
hat saved a ch like
T e
wret m

C A# C
saved a like
That
wretch me

C F
was once lost now I'm (Am?)
I
but found

C A# C
blind
Was now I see
but

C F
race that taught my
It was g eart to feel
h

C A# C
ears
And g race my f
release

C F
ecious did that
How pr race appear
g

C A# C
The our first
h I believed

C F
Through y days of and snails
man toils (?)

C A# C
I have already com e

C F
grace that brougth safe this
Tis
me far
C A# C
grace
And lead me h ome
will

C F
thousand
When we've been dead ten
years

C A# C
as
Bright shining sun
the

C F
no last days sing us
If
to praise

C A# C
no days to ing us
If
last s praise

C A# C
first
Than when we un
beg

C F
mazing grace how
A weet the sound
s

C A# C
hat saved a ch like
T e
wret m

C F
was once lost
I now I'm (am?) found
but

C A# C
blind
Was now I see
but

return to normal
If Tomorrow Never Comes
Garth Brooks
G DC G
=0
D

Verse:

Am =

Sometimes late at
night

D C/G G
I lie awake and watch sleepi
g
her n

D Am7
=

She's lost in peaceful


dreams

D C G
So I out the lights lay there in
dark
turn and the

G Am
And the thought crosses
mind
my

D C/G G
If I never wake up in morni
g
the n

D Am7
=

Will She ever


doubt

DCG=

The way I feel about her in my


heart

=0
D
Chorus:

C
If tomorrow
comes
never

G=

Will she know how much I loved


her?

D=

Did I try in every


way

Am7 D
=

To show her every


day

CG=

That she's my only


one

Am7 G/B C =

And if my time on earth were


through

D Em
=

And she must face this world without


me

Am7
Is the love I gave her in
past
the

D
last
Gonna be enough to
=

G=
If tomorrow never
comes

=0
D

Additional
Verses:

=0
D

'Cause I've lost loved ones in my


life.

Who never knew how much I loved


them

Now I live with the


regret

That my true feelings for them never were


revelaed.

So I made a promise to
myslef

To say each day how much she means to


me

Sailing Written by Sutherland Rod Stewart

From Atlantic Crossing Album


Easy melody Version

D7 G Em C G Am

e|--------------|-----0---0--|-0-----------|---------------|-----------------

B|--------------|-0-3--------|------3-3--1-|-1----0---0--1-|-0--0-------0----

G|------0----0--|-----0---0--|------4-4--2-|------0---0----|-0--0---2--------

D|-0-2----------|------------|-------------|---------------|-----------------

A|------2----2--|------------|-------------|---------------|-----------------

E|--------------|------------|-------------|---------------|-----------------

I am Sail-ing I am sail-ing home a-gain 'cross the sea I am sail-ing stor-

I am fly -ing I am fly -ing like a bird 'cross the sky I am fly -ing pass-

Em Am G

e|-----------------|------------|--------------|

B|-----------------|---0--------|--------------|

G|-2-0----0--------|-------2-2--|-2-0--0-------|

D|---------------0-|-2-----0-0--|--------------|

A|---2----2--------|------------|---2--2-------|

E|-----------------|------------|--------------|

my wa - ters to be near you to be free

ing high clouds to be with you to be free

approx A4-size
approx Letter-size
return to normal
Father And Son Acoystic
Ronan Keating
AA
e|-----0-----------5---7------0---------5---7--------|
B|----2---2-3----2---2-------2---2-3--2---2----------|
G|---2---2------------------2---2--------------------|
D|--2----------------------2-------------------------|
A|-0----------------------0--------------------------|
E|0----------------------0---------------------------|

Rest of the song you can play using : A, E &


D

A E
Father: t's not time to make
change
I a

A D
elax, take it
asy
Just r e

A
You're oung that's your
still y fault

E A
o much you have to
There's s know

A E
Find a girl settle
own
d

A D
If
want you can marry
you

A
Look me, I am
at old

E A
But
happy
I'm

A E
Father was once like you are
ow
: I n
A D
know that it's
easy
And I not

A
To be alm when you've
c found

E A
s going
Something' on

A E
But e your time, think
ot
tak al

A D
Think everything you've
ot
of g

A
For you till be here
will s tomorrow

E A
But your eams may
dr not

A E
Son: ow can I try
explain
H to

A D
I do he turns
again
When away

A
It's
ys been
alwa

E A
Same d
ol story

A E
rom the moment I
talk
F can

A D
I ordered to en
was list

A E
Now re's a way and I
w
the kno

A
That I have
o away
to g

E A
I know I have to
..
go.

Repeat: Father(once)

A E
Son: d all the times that
cried
An I've

A D
all the things I
nside
Keeping knew i

A E
It's rd, but it's harder to
ore it
ha ign

A E
If were right I'd
they agree

A
But it's hey know not
them t me

A E
Now a way and I
ow
there's kn

A
That I
o go away
have t

E A
I know I have to
go...
return to normal

Please Forgive Me
Bryan Adams
D/A D

feels like our first night


It still gether,
to

A Bm

feels like the first and it's getting better


kiss, baby.

F#m7 Gadd9

better
No one can this
,

you're still holding on, you're still


one.
the

D F#7

The first time our eyes same feeling I


met, get,
Bm F#7-9

only feels much I wanna love you


stronger, longer.

D Asus

You still turn the


on.
fire

BRIDGE
:

D Bm D

if
y
o
So feeling lonely,
don't,
u
'r
e

A Dsus

you're the only one I


wan
ever

Bm D

make
I only want to good
it
A Bm G

so if I love you a more than should..


little I .

CHORUS:

D A/D

forgive me, know not what I


Please
I do

Bm A/B Bm

forgive me, can't stop loving


please u.
I yo

G A/G

deny me pain I'm going


Don't
this through

D A/D

forgive me, need you like I


please
I do

D/F# A G/D

Please believe me, word I say is


ev'ry true

G6 D A Bm

forgive me, can't stop loving


please
I you.

VERSE
2:

D/A

It still feels like our best time


ether,
tog

A Bm

feels like the first We're still getting closer


touch. baby,

F#m7 Gadd9

can't get c lose enough.

You're still holding on, you're still


one.
number

D F#7
I remember the smell of your I remember
skin, everything.

Bm F#7-9

I remember all your I remember you,


moves, yeah!

D Asus

I remember the nights, you know I still


do

BRIDGE
:

D Bm D

if
y
o
So feeling lonely,
don't,
u
'r
e

A Dsus

you're the only one I


wan
ever
Bm D

make
I only want to good
it

A Bm G

so if I love you a more than should..


little I .

CHORUS:

D A/D

forgive me, know not what I


Please
I do

Bm A/B Bm

forgive me, can't stop loving


please u.
I yo

G A/G

deny me pain I'm going


Don't
this through

D A/D

please forgive me, need you like I


I do

D/F# A G/D

believe me, word I say is


Please
ev'ry true

G6 D Bm Bm Bm Bm

forgiv
e

can't stop
m
lovin
please e
g
,
you.

BRIDGE
:

A D

The one thing I'm sure is the way we make


of love

A D

the one thing I depend is for us to stay


on strong

Bm

With ev'ry word and ev'ry breath I'm


aying.
pr

B/A

That's why
sayin g...
I'm

CHORUS
2:

E B/E

forgive me, know not what I


Please
I do

C#m B/C# C#m

forgive me, can't stop loving


please
I you

A B/A

deny me pain I'm going


Don't
this through
E B/E

forgive me, need you like I


please o.
I d

E/G# B A/B

believe me, word I say is


Babe,
ev'ry true

A E B/E

please give me, can't stop loving


for I you

B A/B

lieve me, don't know what I'd


Now be
I do

A E B

please give me, can't stop loving


for I you

Can't stop
you.
loving
return to normal
Take Me To Your Heart
Michael Learns To Rock
E|-2-2-2-2--6-6-6-6--2-2-2-2-2-2vv--|

A|-4-4-4-4--6-6-6-6--2-2-2-2-4-4vv--|

D|-2-2-2-4--8-8-8-8--4-4-4-4-2-2vv--|

g|-3-3-3-3--8-8-8-8--4-4-4-4-3-3vv--|

b|-2-2-2-2--7-7-7-7--4-4-4-4-2-2vv--|

E|-2-2-2-2--6-6-6-6--2-2-2-2-2-2vv--|

E|-------------------------------|

A|--4~---------------------------|
D|-------------------------------|

g|-------------------------------|

b|-------------------------------|

E|--2~--2-4-6v-4v-6v-------------|

F7
hinding from rain and
snow

Ebm
trying to forget but i won't let
go

B C#
looking at the crowded street istenin
l g

to my own heartbeat

|guItar|two|

e|---4----2~----------|
B|-----3--------------|

Ebm Bbm B C# F7
so
people all around the world
many

Ebm Bbm
tell me where do find
l'll

|guItar|two|

e|---6~-------------------|
b|------7-5~-7~-----------|

Ab C#
someone like
girl
you

|ChOrus|

C# F7
ke me to heart take me to
ta
your your

Ebm B C#
soul give me
hand before Im old
your

|guitar|two|

e|---4h5-----3~----------|
b|-------(4~)------------|

F7 Ebm
love is haven't got
show me what clue
a

B C#
show me
wonders can be true
that

Bbm Ebm
they nothing lasts
rever
say fo

G#m C#
We're only
today
here
Bbm Ebm
love is now
never
or

Ab C#
bring me
away
far

C# F7 Ebm
ake me to heart me to your
t
your take soul

B C#
give me your hand
hold me
and

F7 Ebm
show me what love is be gardian
my star

G#m C# F7
take me to
It's easy heart
your

|guitar|one| B C# B C# Ebm Bbm B C#

|guitar|three|small help|

e|----------------------------|
A|--2~~-----------------------|
D|------4~--------------------|
G|---------4~---4-----4-------|
B|----------------4-----4-----|
e|------------4-----3-----3---|
E|----------------------------|
A|--4~~-----------------------|
D|------6~--------------------|
G|---------6~---6-----6-------|
A|----------------6-----6-----|
e|------------4-----4-----4---|

|Guitar|two|
e|------------------------------------|
A|------------------------------------|
D|------------------------------------|
G|------------------------------------|
b|--7-h9-7-h9-----9~---------9~-------|
e|-------------7~----9p7-9-7~---------|
e|------------------------------------|
A|------------------------------------|
D|------------------------------------|
G|------------------------------------|
b|--7-h9-7-h9-----9~-----9p7-9~~------|
e|-------------7~----9p7---------9h7~-|
e|-----------------------------|
A|-----------------------------|
D|-----------------------------|
G|-----------------------------|
b|--9~7~9~-----9~-7~-9~--------|
e|---------7~~---------8~~7~---|
e|-------------------------------|
A|-------------------------------|
D|-------------------------------|
G|-------------------------------|
b|--7~h8p7--9~---------9~-7~-----|
e|-------------7~-9~-7~------7~~-|

F7
standing at a mountain
high

Ebm
looking in moon in a clear blue
a sky

B
i should go and see some
friends

C#
they don't really
but
comprehend

Ebm Bbm
I don't need too
talking
much

B C# F7
with saying any thing
out

Ebm Bbm
all i need
someone
is

G#m C#
makes me
who sing
wanna

|repeat chorus|

----------------------------------------------------------------------------

return to normal
Wild World
Mr. Big
---------------------------------------------------------------

Dm G7 C Fmaj Bb Gm A A4 A
Lalalalalalalalalalalalalalalalalalalalalalalalalala

Dm G7 C
Now that I've ost everything to
u
l yo

Fmaj Bb
ay you want to start something
You s
new

Gm A
And breaking my heart you're
aving
it's le

A A-A4-A
aby I'm
B eaving
gr

Dm G7 C
But if
want to leave take good ca re
you

Fmaj Bb
you have alot of nice things of
Hope
wear

Gm A C e ---666---555---333----|
There's been alot of nice things turn bad out there b ---666---555---333----|
g ----------------------|
d ----------------------|
a ----------------------|
E ----------------------|

Chorus:

F C Bb (mini
solo)

Oh baby baby it's a wild


world

C Bb F (mini solo
1)

It's hard to get by just upon a


smile

F C Bb
baby baby it's
Oh wild world
a

C Bb F Gm-A(barre)

I'll always remember you like a child


girl
Dm G7 C
I've seen alot of what the world
You know do
can

Fmaj Bb
And breaking my heart in
it's two

Gm A
ver want to see you gir
'Cos I ne
sad l

A A-A4-A
D on't be a bad girl

Dm G7 C
But if you
ant to leave take good c are
w

Fmaj Bb
make alot of nice friends out
I hope you re
the

Gm A C
emember there's alot of are…. (same like first
Just r d end bew
ba bridge)

Chorus:

F C Bb (mini
solo)

Oh baby baby it's a wild


world

C Bb F (mini solo
1)

It's hard to get by just upon a


smile

F C B (mini
solo)

Oh baby baby it's a wild


world

C Bb F Gm-A(barre)
I'll always remember you like a child
girl

Dm G7 C Fmaj Bb Gm A
Lalalalalalalalalalalalalalalalalalalalalalalalalala

A-A4-A
y I love
Bab
you

Dm G7 C
But if
u want to leave take good care
yo

Fmaj Bb
make alot of nice friends out
I hope you re
the

Gm A C
mber there's alot of ware…. (same like first
Just reme d end be
ba bridge)

Chorus:

F C B (mini
solo)

Oh baby baby it's a wild


world

C Bb F (mini solo
1)

It's hard to get by just upon a


smile

F C Bb (mini
solo)

Oh baby baby it's a wild


world

C Bb F (mini solo 1- with little


changes!!!)
I'll always remember you like a child girl
x2

mini
solo:

e--1-1-1-0---------------------|
b----------3-1-----------------|
g--------------3-2-0-----------|
d---------------------3--------|
a-----------------------3------|
E------------------------------|

mini solo
1:

e-------------------------------|
h-------------------------------|
g-------------------------------|
d---------3-3-3-----------------|
a--3-3-5--------5-3-------------|
E-------------------1-----------|

That's
all !!!

99,99% correct chords. I


know :)!!

But solo..? Who


know?
return to normal
More Than Words
Extreme
-##
From: Ric
Kelly

Subject: CRD:More than words-


Extreme

Date: Mon, 11 Sep 95 13:57:58


+0100

MORE THAN
WORDS

Recorded by
EXTREME

Words&Music Nuno Bettencourt/Gary


Cherone

INTRO
:

G... Cadd9... Am7... C... C.D.


G...

VERSE
:

G Cadd9
Saying I ove you
l is

Am7 C D G
not the words hear
want to you
I from

G Cadd9
It's not that
want you
I

Am7 C D Em
not to say if
only knew
but you

Bm7 Am7
Ho-ow ea-sy

D G D/F# Em
It would be
show me how you feel
to

Bm7 Am7 D7 G7
words i all you have
More than do
s to

G7 C
To make it
real

C Cm G
Then you ouldn't have
say
w to

Em7
That you
ove me 'cos
l

Am7 D7 G
I'd al
eady kn ow
r

BRIDGE
:

G D/F# Em Bm C
if heart torn
What would you do two
my was in

C G/B Am7 D7 G
More than words to feel that your ove for me is
how you
s l real

G D/F#Em7 Bm7 C
What would you took
if I words away?
say those

C G/B Am7
Then you couldn't e
new
mak things

D7 G
Just saying I love
ou
by y

(Repeat intro
x2)

VERSE
2

Now that I've tried


to

Talk to you and make you


understand

All that you have to do


is

Close your eyes and just reach out your


hands

And touch me

Hold me close don't ever let me


go

More than words

Is all I ever needed you to


show

Then you wouldn't have to


say

That you love


me

Cos I'd All Ready


Know
When I Look Into Your Eyes
Firehouse
e --------------------------------------------------|

B ---------------------1-----0------0---------------|

G -------0------2--------0-----0------0-------------|

D -----0---0------0--------0-----0------------------|

A --------------------------------------------------|

E --3--------3-------3------------------------------|

e --------------------------------------------------|

B ---------------------1-----0---------0------------|
G -------0------2--------0-----0-----2--------------|

D -----0---0------0--------0-----0------------------|

A --------------------------------------------------|

E --3--------3-------3------------------------------|

G Bmin7 C
I forever when look in your
see I eyes

Am D7 Gsus4 G
You're all I've wanted, I want you to
mine
ever always be

G Bmin7 C
Let's make promise till
end of time
a the

Am D7 Gsus4 G
We'll always together and love will
die
be our never

Em C
So here we
face to face
are

Dsus Dsus
G D D
4 2
heart to
And
heart

Dsus Dsus
Em C G D D
2 4
I want you know we
never be apart
to will
Dsus Dsus
Em C G D D
4 2
believe wishes can come
Now I
that true

C D
Cause I see my whole I see only
world, you

GBmin7 C
When into
look eyes
I your

G Bmin7
see how much
I can love you
I

Dsus Dsus
C D D
4 2
makes me
And it
realize

GBmin7 C
When into
look eyes
I your

Am
I all my dreams come
see true

C D G
When into
look eyes
I your

Bimn
G C
7
I looked all of my
you
for life

Am D7 Gsus4 G
And now that found you we never say bye
I've will good

G Bmin7 C
Can't stop feeling and
nothing I can do
this there's

C Am D
Cause I when I look at
everything,
see you

GBmin7 C
When into
look eyes
I your

G Bimn7
see how much
I can love you
I

Dsus Dsus
C D D
4 2
makes me
And it
realize

GBmin7 C
When into
look eyes
I your

Am
I all my dreams come
see true

C D G
When into
look eyes
I your

DC G D C DG D C Am D

(ABOVE ARE THE CHORDS PLAYED DURING THE


SOLO!!)
e[--------------------------------------10----10----10---10-]
B[-------------------------8-7-8-8^-7-8---------------------]
G[-7~~-9^-9-9^-7-9^----7-9-----------------8-7---8-7--8-7---]
D[-----------------7--7-------------------------------------]
A[----------------------------------------------------------]
E[----------------------------------------------------------]
e[-12^-12-12^-10-12^-12-12---]
B[-------------------------10]
G[---------------------------]
D[---------------------------]
A[---------------------------]
E[---------------------------]
E[---------15^-15-14-15}-17-15-14----15-14-12-14-12-12p11p9--]
B[-14-15-17------------}----------17-------------------------]
G[---------------------}-------------------------------------]
D[---------------------}-------------------------------------]
A[---------------------}-------------------------------------]
E[---------------------}-------------------------------------]

Dsus
A C#m7 D D
2
When into
look eyes
I your

A C#m7 D E
see how much love you and makes realiz
I can
I it me e

Dsus
A C#m7 D D
2
When into
look eyes
I your

A C#m7 D E
We together and love will
always be die
will our never

A C#m7 D
When into
look eyes
I your

Bm C#m7 D E A
I all my dreams true when into
look eyes
see come I your
ED A
When into
look eyes
I your

Outro:

e --------------------------------------------]
B -------------------3-----2------2-----------]
G -------2------4------2-----2------2---------]
D -----2---2------2------2-----2--------------]
A ---0-------0------0-------------------------]
E --------------------------------------------]
e ------------------------------------------]
B -------------------3-----2---------2------]
G -------2------4------2-----2----4---------]
D -----2---2------2------2-----2------------]
A ---0-------0------0-----------------------]
E ------------------------------------------]

return to normal

This Love
Maroon 5
Ebmaj
Cm Fm G7 Bb Eb Ab
7
e----3----3----1----3----6----6----6----4----|
B----3----4----1----3----6----8----8----4----|
G----4----5----1----4----7----8----7----5----|
D----5----5----3----3----8----8----8----6----|
A----5----3----3----5----8----6----6----6----|
E----3----x----1----3----6----x----X----4----|

Intro

-----

G, Cm, Fm, G7

Verse
0
1

--------

G Cm

I was so high I did


recognize
not

Fm

The fire burning in


eyes
her
G7

The chaos controlled my


that mind

G Cm

whispered goodbye as she


on a plane
got

Fm

Never to
urn again
ret

G7

But always in
heart
my

Chorus

------

Cm Fm Bb Eb

his love taken toll on


h it me
as s

Cm Fm Bb Eb

many times
he said Good bye too fore
be

Cm Fm Bb Eb

heart
breaking front of
And her i
in me
s

Cm Fm Bb Ab

I won't say
have no choice cause bye any
more
good

Cm, Fm, G7

Verse
0
2

--------
G Cm

I tried my best to feed


appetite
her

Fm

every
Keep her coming nigh
t

G7

So hard to keep satisfie


her d

G Cm

Kept playing love like it


just a game
was

Fm

Pretending feel the


to same

G7

Then turn around


leave again (oh!)
and
Chorus

------

Cm Fm Bb Eb

love taken
toll on
his h it
me
as s

Cm Fm Bb Eb

many times
he said Good bye too fore
be

Cm Fm Bb Eb

heart
breaking front of
And her i
in me
s

Cm Fm Bb Ab

I won't say
have no choice cause bye any
more
good

Cm, Fm, G7
Bridge

------

Fm

I'll fix these broken


things

Ebmaj7

Repair your broken


wings

G7 Cm

And make sure everything's lright (it's


a alright)

Fm

My pressure on her
hips

Ebmaj7

Sinking my
fingertips

G
Into every inch of
you

G7

Cause I know that's what you want me to


do

Chorus

------

Cm Fm Bb Eb

love taken
toll on
his h it
me
as s

Cm Fm Bb Eb

many times
he said Good bye too fore
be

Cm Fm Bb Eb

heart
breaking front of
And her i
in me
s
Cm Fm Bb Ab

I won't say
have no choice cause bye any
more
good

Cm Fm Bb Eb

love taken
toll on
his h it
me
as s

Cm Fm Bb Eb

many times
he said Good bye too fore
be

Cm Fm Bb Eb

heart
breaking front of
And her i
in me
s

Cm Fm Bb Ab

I won't say
have no choice cause bye any
more
good

Cm Fm Bb Eb

love taken
toll on
his h it
me
as s
Cm Fm Bb Eb

many times
he said Good bye too fore
be

Cm Fm Bb Eb

heart
breaking front of
And her i
in me
s

Cm Fm Bb Ab

I won't say
have no choice cause bye any
more
good

return to normal

Sweet child o` mine


Guns and Roses
D D

1. e's got a smile that it seems to


Sh me,

inds me of childhood
rem
memories,

where verything was as fresh as the bright


ky.
e blue s

Now and then when I see her


face,

she akes me away to that special


t place,

and if I ay too long, I'd probably break down and


ry.
st c

A C G

h, sweet ild of
h oh oh o ine.
ch m
A C G

h, sweet
h oh oh o ove ofine.
m
l

D C

's got eyes of the bluest sky, f they thought of


2. She
and i rain,

G D

ate to look into those eyes, and


Ih ee an ounce of pain.
s

Her hair reminds me of a warm, safe


place,

s a child I'd
where a
hide,

G D

ay for the thunder, and the rain to ietly pass me


and pr
qu by.

+ REFRAIN + REFRAIN E - G - A - C
-D

E G A
ere do we go, ere do we go now, ere do we
Wh
wh wh go ? (

E A C-D

Sweet sweet hild of


ild, ine.
ch c m