21 Guns

Green Day
Bass TAB
() = optional
> Does the pain weigh out the pride..
G|---------------------------------------------------------------------------|
D|-------(3-3)------------(3-3)-----------(3-3)------------------------------|
A|-5-5-1-1---3-3--5-5-1-1-----3-3--5-5-1-1-----3-3--1------------3-----------|
E|--------1-1--------------1-1--------------1-1------------------------------|
> One, 21 guns... (Chorus)
G|---------------------------------------------------------------------------|
D|(3-3)-(2-2)------------------------(3-3-3-3)-------------------------------|
A|-------------5-5---3-3-3-3--1-1-1-1---------3-3-3-3-3-3-3-3----------------|x2
E|-1-1---0-0--------------------------1-1-1-1--------------------------------|
> You and I...
G|---------------------------------------------------------------------------|
D|--------(3-3-3-3)----------------------------------------------------------|
A|-1-1-1-1---------3~--------------------------------------------------------|
E|---------1-1-1-1-----------------------------------------------------------|
> When you're at the end of the road...
G|---------------------------------------------------------------------------|
D|-------(3-3)------------(3-3)-----------(3-3)------------------------------|
A|-5-5-1-1---3-3--5-5-1-1-----3-3--5-5-1-1-----3-3---------------------------|x2
E|--------1-1--------------1-1--------------1-1------------------------------|
> Your faith walks on broken glass...
G|---------------------------------------------------------------------------|
D|-------(3-3)------------(3-3)-----------(3-3)------------------------------|
A|-5-5-1-1---3-3--5-5-1-1-----3-3--5-5-1-1-----3-3--1------------3-----------|
E|--------1-1--------------1-1--------------1-1------------------------------|
> One, 21 guns...
G|---------------------------------------------------------------------------|
D|(3-3)-(2-2)----------------------------------------------------------------|
A|------------5-5--3-3-3-3--1-1-1-1---------3-3-3-3-3-3-3-3------------------|x2
E|-1-1---0-0-------------------------1-1-1-1---------------------------------|
> You and I...
G|---------------------------------------------------------------------------|
D|---------------------------------------------------------------------------|
A|-1-1-1-1---------3-3-3-3-3-3-3-3-------------------------------------------|
E|---------1-1-1-1-----------------------------------------------------------|

> Did you try to live on your own...
G|---------------------------------------------------------------------------|
D|----------(3-3)-------------------(3-3-3-3)--------------------------------|
A|-5-5--1-1-------3-3-3-3--5-5--1-1-----------0-0-0-0------------------------|
E|-----------1-1---------------------1-1-1-1---------------------------------|
> Did you stand to close to the fire...
G|---------------------------------------------------------------------------|
D|----------(3-3-3-3)--------------------------------------------------------|
A|-5-5--1-1-----------0-0-0-0--1-1-1-1-1-1-1-1--3-3-3-3-3-3-3-3--------------|
E|-----------1-1-1-1---------------------------------------------------------|

Solo G|---------------------------------------------------------------------------| D|(3-3-3-3)-(2-2-2-2_---------------------------(3-3-3-3)--------------------| A|-------------------5-5-5-5--3-3-3-3--1-1-1-1-----------3-3-3-3-3-3-3-3-----|x2 E|-1-1-1-1---0-0-0-0-----------------------------1-1-1-1---------------------| G|---------------------------------------------------------------------------| D|---------(3-3-3-3)---------------------------------------------------------| A|-1-1-1-1-----------0-0-0-0-0-0-0-0-----------------------------------------| E|----------1-1-1-1----------------------------------------------------------| Chorus x4 .

Sign up to vote on this title
UsefulNot useful