You are on page 1of 1

SHRED GUITAR LESSONS

SWEEP PICKING EXERCISES

A Minor 7 Arpeggio

- - -- -- - -- - - - - -- - - - - - - 3 - 5-5 -3------------------- --
- - - - - - - - - - - - - -- --5 - - - - - - -------5---------------- - -
- - - - - - - - - - - - - -5- - - - - - - -- -- - - - --- 5------------- - -
- - - - -- - - -2 -5- 7- - - - - - - -- -- --- - - - ------7-5-2----- - -
- - - - - -3- -- -- -- -- - -- --- -- ----------------------------3-----
- - -5 - -- -- ---- ----- ----------- ----- ---- --- ----- --- --- ----3

A Major 7 Arpeggio

- - - - - - - - - - - - - - - - - - - - -4 -5- - - - - - - - - - - - - - - - - -
- - - - - - - - - - - - - - - - - - -5- - - - - -5 - - - - -- -- - - -- - - - -
- - - - - - - - - - - - - - -6 - - - - - - - - - - -6 - -- - - - -- - - - - - -
- - - - - - - 2 - - 6 –7 - - - - - - - - - - - - - - - -7 -6 - -2- - - -- - -
- - - - - 4 - - - -- - - - - - - - - - - - - - - - - - - - - - - - - - -4 - - --
--5-------------------------------------4

Both these Exercises are great for sweep picking practice and can be played at speed
with practice. For more tips visit

www.shredguitarlessons.net