You are on page 1of 1

* Primeiros acordes para estudar No primeiro tempo toque com o polear a 6ª corda;

No segundo tempo toque com o polegar a 5ª corda;


A (La Maior) Am (La Menor) No terceiro tempo toque com o polegar a 4ª corada;

|-----|-----|-----|:E |-----|-----|-----|:E Observe o esquema abaixo:


b|-----|-----|-----|:A b|-----|-----|-----|:A
|-----|--1--|-----|:D |-----|--2--|-----|:D Tempos 1 2 3 1 2 ...
. |-----|--2--|-----|:G . |-----|--3--|-----|:G Dedos P P P P P ...
. |-----|--3--|-----|:B . |-----|-----|--1--|:B
. |-----|-----|-----|:e . |-----|-----|-----|:e Repita este movimento até sincronizar com
perfeição, um
toque a cada tempo.
A7 (La Maior com sétima) Dedilhado

|-----|-----|-----|:E É o processo de tirar notas sucessivas, uma corda de


b|-----|-----|-----|:A cada vez,
|-----|--2--|-----|:D cada corda com um dedo diferente.
. |-----|-----|-----|:G
. |-----|--3--|-----|:B 1º Dedilhado
. |-----|-----|----- |:e

Tempos 1 2 3 4 1 2 3 ...
E (Mi Maior) E7 (Mi Maior com sétima)
Dedos B 1 2 3 B 1 2 ...
b|-----|-----|-----|:E b|-----|-----|-----|:E |_____________|
|-----|--2--|-----|:A |-----|--2--|-----|:A Ded. Completo
|-----|--3--|-----|:D |-----|--3--|-----|:D
. |-----|-----|--1--|:G . |-----|-----|--1--|:G
Onde:
. |-----|-----|-----|:B . |--4--|-----|-----|:B
. |-----|-----|-----|:e . |-----|-----|-----|:e
B = Baixo
1 = Indicador
2 = Médio
D (Re Maior) Dm (Re Menor) 3 = Anular

|-----|-----|-----|:E |-----|-----|-----|:E Exercício:


|-----|-----|-----|:A |-----|-----|-----|:A
b|-----|-----|-----|:D b|-----|-----|-----|:D
Para praticar este dedilhado vamos treinar no acorde
. |-----|--2--|-----|:G . |-----|--2--|---- |:G
de C (Do maior).
. |--3--|-----|-----|:B . |--3--|-----|-----|:B
. |-----|--1--|-----|:e . |-----|-----|--1--|:e
C
|-----|-----|-----|:E
b|--3--|-----|-----|:A
Observe nos acordes acima que o Baixo é sempre |-----|--2--|-----|:D
dado na corda que . |-----|-----|-----|:G
emite a nota nomeadora do acorde. . |-----|-----|--1--|:B
. |-----|-----|-----|:e
* Ritmo e dedilhados
Começamos tocando com o Polegar na 5ª corda
O Tempo indicado por b no gráfico,
agora toca-se o Indicador na 3ª corda, em seguida o
Para ter uma noção básica sobre o tempo, vamos dedo Médio na
praticar 2ª corda e finalmente o dedo Anular na 1º corda.
usando como marcador um relógio, a cada segundo
passado
toque a 6ª corda do instrumento com o Polegar, siga Tente executar no dedilhado o trecho abaixo,
o ritmo aplicando o dedilhado
dos segundos sem atrasar e nem adiantar. Vamos completo duas vezes em cada posição. Você deve
tocar a mesma nota alcançar a perfeição
a cada segundo que passa. quando conseguir fazer as passagens de um acorde
para outro seguindo
Então vamos dizer que 1 tempo e igual a 1 segundo. o tempo corretamente.

Agora vamos tocar a cada tempo uma nota diferente. Am - A7 - Dm - Am - E - E7 - Am

Usaremos 3 tempos.