All Nightmar Long - Metallica

------------------------------------------------------------------------------Tabbed by: Hell fighter
Email:
Tuning: Drop D (D-A-D-G-B-E)
Gtr. 1 Clean
e|-----------------|---------------------|
B|-----------------|---------------------|
G|-------^^^^^^----|---------------------|
D|-----5-6-----5---|-----5---------5-----| Rhy Fig 1
A|---5-------------|---5---^^^^^^----6---|
E|-0---------------|-0-----3-----0-------|
Gtr. 2 Dist. w/ Rhy Fig 1 five times
e|---------------|--------------|---------------|-------------|
B|---------------|--------------|---------------|-------------|
G|---------------|--------------|---------------|-------------|
D|--0---6----5---|-0-0----------|--0---6----5---|-0-0---------|
A|--0---6----5---|-0-0----------|--0---6----5---|-0-0---------|
E|--0---6----5---|-0-0----------|--0---6----5---|-0-0---------|
x x
x x
e|---------------|--------------|---------------|-------------|
B|---------------|--------------|---------------|-------------|
G|---------------|--------------|---------------|-------------|
D|--0---6----5---|-0-0-0--------|--0---6----5---|-0-0---0-----|
A|--0---6----5---|-0-0-0--------|--0---6----5---|-0-0---0-----|
E|--0---6----5---|-0-0-0--------|--0---6----5---|-0-0---0-----|
x x x
x x
e|---------------|--------------|---------------|
B|---------------|--------------|---------------|
G|---------------|--------------|---------------|
D|-0-0---0-------|-6-5---0------|-6-5-----------|
A|-0-0---0-------|-6-5---0------|-6-5-----------|
E|-0-0---0-------|-6-5---0------|-6-5-----------|
x x
Both Gtrs Dist.
e|-------------------------------------------------------------------|
B|-------------------------------------------------------------------|
G|-------------------------------------------------------------------|
D|-------------------------------------------------------------------|
A|-------------------------------------------------------------------|
E|-0-0-0-0-0-0-0-0-0-0-0-0-0-0-0-0-|-0-0-0-0-0-0-0-0-0-0-0-0-0-0-0-0-|
x x x x x x x x x x x x x x x x x x x x x x x x x x x x x x x x
Gtr. 1
e|---------------------------------|----------------------|
B|---------------------------------|----------------------|
G|---------------------------------|----------------------|
D|---------------------------------|----------------------|
A|---------------------------------|--+++++++++++---------|
E|-0-0-0-0-0-0-0-0-0-0-0-0-0-0-0-0-|-2-----------12--12\--|
| x x x x x x x x x x x x x x x x # Harm Slide
|
|Gtr 2
e|---------------------------------|----------------------|

B|---------------------------------|----------------------|
G|---------------------------------|----------------------|
D|---------------------------------|----------------------|
A|---------------------------------|---++++++++++---------|
E|-0-0-0-0-0-0-0-0-0-0-0-0-0-0-0-0-|-12----------2----0---|
x x x x x x x x x x x x x x x x # Harm Slide
Both Gtrs
e|--------------------------|------------------------|
B|--------------------------|------------------------|
G|--------------------------|------------------------|
D|--------------------------|------------------------| Play 4 times
A|--------------------------|------------------------|
E|-2-1-0--0--0--0--0--0--0--|-0--0--0--0--0--0--0--0-|
x x x x x x x x x
x x x x x x x x
e|--------------------------|---------------------------|
B|--------------------------|---------------------------|
G|--------------------------|---------------------------|
D|-----------------1--1-----|----1--1-------------------| play 5 times
A|-----------------1--1-----|----1--1-------------------|
E|-2-1-0--0--0--0--1--1--0--|-0--1--1--0--2-2-2--3-3-3--|
x x x x x x
x
x
x x x x x x x
e|--------------------------|-----------------|------------------------|
B|--------------------------|-----------------|------------------------|
G|--------------------------|-----------------|------------------------|
D|-----------------1--1-----|----1--1---------|-3-----5-----3-----5----|
A|-----------------1--1-----|----1--1---------|-3-----5-----3-----5----|
E|-2-1-0--0--0--0--1--1--0--|-0--1--1---------|-3--0--5--0--3--0--5--0-|
x x x x x x
x
x
x
x
x
x
e| --------------------------|--------------------------|
B|X--------------------------|--------------------------|
G| --------------------------|--------------------------|
D| ---------3----------------|---------3----------------|
A|X-3h5--5--3----------------|-3h5--5--3----------------|
E| ---0--0--3----0-0-0-0-0-0-|---0--0--3----0-0-0-0-0-0-|
x x x x x x
x x x x x x
e|--------------------------|----------------------- |
B|--------------------------|-----------------------X|
G|--------------------------|----------------------- | (repeat)
D|---------3----------------|-7--7---5--5/10--10\--- |
A|-3h5--5--3----------------|-5--5---3--3/8---8-\---X|
E|---0--0--3----0-0-0-0-0-0-|----------------------- |
x x x x x x
e|-------------|-------------|--------------------------------|
B|-------------|-------------|--------------------------------|
G|-------------|-6-----7-----|--------------------------------|
D|-7-----8-----|-6-----7-----|--------------------------------|
A|-7-----8-----|-4-----5-----|-8--8-8--8--8-8--8--8-8--8--8-8-|
E|-7-----8-----|-------------|--------------------------------|
x x x x x x x x x x x x
e|-------------------------|
B|-------------------------|
G|-------------------------|
D|-------------------------|

A|-10-10-10-10-10-10-10-10-|
E|-------------------------|
Rhy Fig 2
e|--------------------------|--------------------------|
B|--------------------------|--------------------------|
G|--------------------------|--------------------------|
D|---------3----------------|---------3----------------|
A|-3h5--5--3----------------|-3h5--5--3----------------|
E|---0--0--3----0-0-0-0-0-0-|---0--0--3----0-0-0-0-0-0-|
x x x x x x
x x x x x x
e|--------------------------|-----------------------|
B|--------------------------|-----------------------|
G|--------------------------|-----------------------|
D|---------3----------------|-7--7---5--5/10--10\---|
A|-3h5--5--3----------------|-5--5---3--3/8---8-\---|
E|---0--0--3----0-0-0-0-0-0-|-----------------------|
x x x x x x
End Rhy Fig 2
e|-------------|-------------|-------------------------|
B|-------------|-------------|-------------------------|
G|-------------|-6-----7-----|-----------------10------|
D|-7-----8-----|-6-----7-----|-----------------10------|
A|-7-----8-----|-4-----5-----|-8-8-8-8-8-8-8-8-8-------|
E|-7-----8-----|-------------|-------------------------|
x x x x x x x x
PRE VERSE
Gtr 1
e|---------------------------------|---------------------------------|
B|---------------------------------|---------------------------------|
G|---------------------------------|---------------------------------|
D|---------------------------------|---------------------------------|
A|---------------------------------|---------------------------------|
E|-2-2-2-2-2-2-2-2-2-2-2-2-2-2-2-2-|-2-2-2-2-2-2-2-2-2-2-2-2-2-2-2-2-|
| x x x x x x x x x x x x x x x x x x x x x x x x x x x x x x x x
|Gtr 2
e|---------------------------------|---------------------------------|
B|---------------------------------|---------------------------------|
G|---------------------------------|---------------------------------|
D|-9-9-9-9-9-9---------------------|---------------------------------|
A|-------------8-8-8-8-8-8-7-7-7-7-|-5-5-5-5-5-5-2-2-2-2-2-2---------|
E|---------------------------------|-------------------------3-3-3-3-|
Both Gts
e|---------------------------------|---------------------------|
B|---------------------------------|---------------------------|
G|---------------------------------|---------------------------|
D|---------------------------------|----------2----------------|
A|---------------------------------|-2--3--5-----5--3--2h3p2p0-|
E|-2-2-2-2-2-2-2-2-2-2-2-2-2-2-2-2-|---------------------------|
x x x x x x x x x x x x x x x x x x x x x x
e|---------------------------------|---------------------------------|
B|---------------------------------|---------------------------------|
G|---------------------------------|---------------------------------|
D|---------------------------------|---------------------------------|
A|---------------------------------|---------------------------------|
E|-2-2-2-2-2-2-2-2-2-2-2-2-2-2-2-2-|-2-2-2-2-2-2-2-2-2-2-2-2-2-2-2-2-|

| x x x x x x x x x x x x x x x x

x x x x x x x x x x x x x x x x

e|---------------------------------|---------------------------|
B|---------------------------------|---------------------------|
G|---------------------------------|---------------------------|
D|---------------------------------|----------2----------------|
A|---------------------------------|-2--3--5-----5--3--2h3p2p0-|
E|-2-2-2-2-2-2-2-2-2-2-2-2-2-2-2-2-|---------------------------|
x x x x x x x x x x x x x x x x x x x x x x
VERSE
Gtr 1
e|---------------------------------|---------------------------------|
B|---------------------------------|---------------------------------|
G|-4-------------------------------|(4)----------------------4-------|
D|-X-------------------------------|(X)----------------------X-------|
A|-2-------------------------------|(2)----------------------2-------|
E|---------------------------------|---------------------------------|
|
|Gtr 2
e|---------------------------------|---------------------------------|
B|---------------------------------|---------------------------------|
G|-4-4-4-4-4-4-4-4-4-4-4-4-4-4-4-4-|-4-4-4-4-4-4-4-4-4-4-4-4-4-4-4-4-|
D|-X-X-X-X-X-X-X-X-X-X-X-X-X-X-X-X-|-X-X-X-X-X-X-X-X-X-X-X-X-X-X-X-X-|
A|-2-2-2-2-2-2-2-2-2-2-2-2-2-2-2-2-|-2-2-2-2-2-2-2-2-2-2-2-2-2-2-2-2-|
E|---------------------------------|---------------------------------|
e|---------------------------------|---------------------------------|
B|---------------------------------|---------------------------------|
G|-5-------------------------------|(5)------------------------------|
D|-X-------------------------------|(X)------------------------------|
A|-3-------------------------------|(3)------------------------------|
E|---------------------------------|---------------------------------|
|
e|---------------------------------|---------------------------------|
B|---------------------------------|---------------------------------|
G|---------------------------------|---------------------------------|
D|-3-3-3-3-3-3-3-3-3-3-3-3-3-3-3-3-|-3-3-3-3-3-3-3-3-3-3-3-3-3-3-3-3-|
A|-X-X-X-X-X-X-X-X-X-X-X-X-X-X-X-X-|-X-X-X-X-X-X-X-X-X-X-X-X-X-X-X-X-|
E|-3-3-3-3-3-3-3-3-3-3-3-3-3-3-3-3-|-3-3-3-3-3-3-3-3-3-3-3-3-3-3-3-3-|

e|---------------------------------|---------------------------------|
B|---------------------------------|---------------------------------|
G|-4-------------------------------|(4)------------------------------|
D|-X-------------------------------|(X)------------------------------|
A|-2-------------------------------|(2)------------------------------|
E|---------------------------------|---------------------------------|
|
e|---------------------------------|---------------------------------|
B|---------------------------------|---------------------------------|
G|-4-4-4-4-4-4-4-4-4-4-4-4-4-4-4-4-|---------------------------------|
D|-X-X-X-X-X-X-X-X-X-X-X-X-X-X-X-X-|-2-2-2-2-2-2-2-2-2-2-2-2-2-2-2-2-|
A|-2-2-2-2-2-2-2-2-2-2-2-2-2-2-2-2-|-X-X-X-X-X-X-X-X-X-X-X-X-X-X-X-X-|
E|---------------------------------|-2-2-2-2-2-2-2-2-2-2-2-2-2-2-2-2-|
e|---------------------------------|---------------------------------|

B|---------------------------------|---------------------------------|
G|-4-------------------------------|-5-------------------------------|
D|-X-------------------------------|-X-------------------------------|
A|-2-------------------------------|-3-------------------------------|
E|---------------------------------|---------------------------------|
|
e|---------------------------------|---------------------------------|
B|---------------------------------|---------------------------------|
G|-4-4-4-4-4-4-4-4-4-4-4-4-4-4-4-4-|---------------------------------|
D|-X-X-X-X-X-X-X-X-X-X-X-X-X-X-X-X-|-3-3-3-3-3-3-3-3-3-3-3-3-3-3-3-3-|
A|-2-2-2-2-2-2-2-2-2-2-2-2-2-2-2-2-|-X-X-X-X-X-X-X-X-X-X-X-X-X-X-X-X-|
E|---------------------------------|-3-3-3-3-3-3-3-3-3-3-3-3-3-3-3-3-|
Both Gtrs.
e|-----------------|-----------------|-----------------|------------------|
B|-----------------|-----------------|-----------------|------------------|
G|-4---------------|-4---------------|-4---------------|-4----------------|
D|-4-----2-----3---|-4-----2-----3---|-4-----2-----3---|-4-----2-----3----|
A|-2-----2-----3---|-2-----2-----3---|-2-----2-----3---|-2-----2-----3----|
E|-------2-----3---|-------2-----3---|-------2-----3---|-------2-----3----|
e|------------------------|------------------------|
B|------------------------|------------------------|
G|------------------------|------------------------|
D|-2--2--2--2--2--0--0--0-|-2--2--2--2--2--0--0--0-|
A|-2--2--2--2--2--0--0--0-|-2--2--2--2--2--0--0--0-|
E|-2--2--2--2--2--0--0--0-|-2--2--2--2--2--0--0--0-|
x x x x x x x x x x x x x x x x
e|----------------|----------------|-----------------------------|
B|----------------|----------------|-----------------------------|
G|----------------|-6------7-------|-----------------10----------|
D|-7------8-------|-6------7-------|-----------------10----------|
A|-7------8-------|-4------5-------|-8-8-8-8-8-8-8-8-8-----------|
E|-7------8-------|----------------|-----------------------------|
x x x x x x x x
Play Rhy Fig 2, both gtrs.

CHORUS
Both Gtrs.
e| -----------------------|-----------------------|
B|X-----------------------|-----------------------|
G| -7--7----10-10-9--9--7-|-7--7----10-10-9--9--7-|
D| -X--X----X--X--X--X--X-|-X--X----X--X--X--X--X-|
A|X-5--5----8--8--7--7--5-|-5--5----8--8--7--7--5-|
E| -0--0----0--0--0--0--0-|-0--0----0--0--0--0--0-|
e|-----------------------|---------------------- |
B|-----------------------|----------------------X|
G|-7--7----10-10-9--9--7-|---------------------- | Play 4 times
D|-X--X----X--X--X--X--X-|-5--5----5--5--2--2--- |
A|-5--5----8--8--7--7--5-|-3--3----2--2--0--0---X|
E|-0--0----0--0--0--0--0-|---------------------- |
e|--------------------|
B|--------------------|

G|-3----3----3--------|
D|-3----3----3--------| (End Chorus)
A|-1----1----1--------|
E|-1----1----1--------|
e|--------------------------|---------------------------|
B|--------------------------|---------------------------|
G|--------------------------|---------------------------|
D|-----------------1--1-----|----1--1-------------------| play 3 times
A|-----------------1--1-----|----1--1-------------------|
E|-2-1-0--0--0--0--1--1--0--|-0--1--1--0--2-2-2--3-3-3--|
x x x x x x
x
x
x x x x x x x
e|--------------------------|-----------------|------------------------|
B|--------------------------|-----------------|------------------------|
G|--------------------------|-----------------|------------------------|
D|-----------------1--1-----|----1--1---------|-3-----5-----3-----5----|
A|-----------------1--1-----|----1--1---------|-3-----5-----3-----5----|
E|-2-1-0--0--0--0--1--1--0--|-0--1--1---------|-3--0--5--0--3--0--5--0-|
x x x x x x
x
x
x
x
x
x
e| --------------------------|--------------------------|
B|X--------------------------|--------------------------|
G| --------------------------|--------------------------|
D| ---------3----------------|---------3----------------|
A|X-3h5--5--3----------------|-3h5--5--3----------------|
E| ---0--0--3----0-0-0-0-0-0-|---0--0--3----0-0-0-0-0-0-|
x x x x x x
x x x x x x
e|--------------------------|----------------------- |
B|--------------------------|-----------------------X|
G|--------------------------|----------------------- |
D|---------3----------------|-7--7---5--5/10--10\--- | Repeat
A|-3h5--5--3----------------|-5--5---3--3/8---8-\---X|
E|---0--0--3----0-0-0-0-0-0-|----------------------- |
x x x x x x
e|-------------|-------------|-------------------------|
B|-------------|-------------|-------------------------|
G|-------------|-6-----7-----|-----------------10------|
D|-7-----8-----|-6-----7-----|-----------------10------|
A|-7-----8-----|-4-----5-----|-8-8-8-8-8-8-8-8-8-------|
E|-7-----8-----|-------------|-------------------------|
x x x x x x x x
Play Pre Verse
Play Verse
Play Chorus
PRE SOLO
Both Gtrs.
e|---------------------------------|-------------|
B|---------------------------------|-------------|
G|---------------------------------|-------------|

D|---------------------------------|-0-----------|
A|---------------------------------|-0-----------|
E|-7-7-7-7-3-3-3-3-5-5-5-5-1-1-1-1-|-0-----------|
x x x x x x x x x x x x x x x x
Gtr 1
e| ------------------------|---------------------- |
B|X------------------------|----------------------X|
G| ------------------------|---------------------- | play 3 times
D| ------------7--(7)\-----|---------------------- |
A|X------------7--(7)\-----|----------------------X|
E| -0-0-0-0-0--7--(7)\-----|---------------------- |
| x x x x x
|Gtr 2 w/ wah
e| ------------------------|---------------------- |
B|X------------------------|----------------------X|
G| ------------------------|---------------------- | Play 3 times
D| -7-----8--7-------7-----|------5--------------- |
A|X----5----------5-----8--|---7-----8----7--6--5-X|
E| ------------------------|---------------------- |
e|------------------------|----------------------|
B|------------------------|----------------------|
G|------------------------|----------------------|
D|------------7--(7)\-----|--------------3--2--1-|
A|------------7--(7)\-----|--------------3--2--1-|
E|-0-0-0-0-0--7--(7)\-----|--------------3--2--1-|
| x x x x x
x x x
|
e|------------------------|----------------------|
B|------------------------|----------------------|
G|------------------------|----------------------|
D|-7-----8--7-------7-----|------5---------------|
A|----5----------5-----8--|---7-----8----7--6--5-|
E|------------------------|----------------------|
Rhy Fig 3
End Rhy Fig 3
e|------------------------|-------------------------|
B|------------------------|-------------------------|
G|------------------------|-------------------------|
D|------------7----7--7---|------------3----3--2--1-| play 4 times
A|------------7----7--7---|------------3----3--2--1-|
E|-0-0-0-0-0--7----7--7---|-3-3-3-3-3--3----3--2--1-|
| x x x x x
x x x x x
|
e|------------------------|-------------------------|
B|------------------------|-------------------------|
G|------------------------|-------------------------|
D|-7-----8--7-------7-----|------5------------------| Play 4 times
A|----5----------5-----8--|---7-----8-------7--6--5-|
E|------------------------|-------------------------|
SOLO w/ Rhy Fig 3 (Gtr 1 four times)
Gtr 2 NO wah
e|----------------|----------------------|----------------------|
B|----------------|----------------------|----------------------|
G|----------------|----------------------|----------------------|
D|-/12----------0-|-/12---0/12---0/12--0-|-/12---0/12---0/12--0-|

A|--#-------------|--#------#------#-----|--#------#------#-----|
E|--#-------------|--#------#------#-----|--#------#------#-----|
e|-----------------------|-----------------------|-------------------------|
B|-----------------------|--------------------5--|--------------------5----|
G|-----------------------|--------------------5--|--------------------5----|
D|-12\11\10\9\8\7--0--5--|-7p5-7p5-7--p5-7p5-----|-7p5-7p5-7--p5-7p5-------|
A|-#--#--#--#-#-#--------|-----------------------|-------------------------|
E|-#--#--#--#-#-#--------|-----------------------|-------------------------|
e|-------------------------|-----------------------|
B|--------------------5----|----------------5----0-|
G|--------------------5----|----------------5/14\0-|
D|-7p5-7p5-7--p5-7p5-------|-7p5--7p5--7-----------|
A|-------------------------|-----------------------|
E|-------------------------|-----------------------|
Gtr 1
e|----------------------------------------|
B|----------------------------------------|
G|---------------4------------------------|
D|-2-------------4------------------------|
A|-2-------------2------------------------|
E|-2----------0---------------------------|
|
x
|Gtr 2
e|----------------------------------------|
B|----------------------------------------|
G|-4p2p0-------4p2p0-----4p2p0-4p2p0------|
D|------4p2p0-------4p2p0-----------4p2p0-|
A|----------------------------------------|
E|----------------------------------------|
Gtr 1
e|--------------------------------------------|
B|--------------------------------------------|
G|-3------------------------------------------|
D|-3---------------3--------------------------|
A|-1---------------3--------------------------|
E|-----------0-----3--------------------------|
|
x
|Gtr 2
e|--------------------------------------------|
B|--------------------------------------------|
G|-4p2p0-----4p2p0-4p2p0-----4p2p0-4p2p0------|
D|------4p2p0-----------4p2p0-----------4p2p0-|
A|--------------------------------------------|
E|--------------------------------------------|
e|------------------------------------------|
B|------------------------------------------|
G|----------------4-------------------------|
D|-2--------------4-------------------------|
A|-2--------------2-------------------------|
E|-2---------0------------------------------|
|
x
e|------------------------------------------|
B|------------------------------------------|

G|-4p2p0-----4p2p0-----4p2p0-----4p2p0------|
D|------4p2p0-----4p2p0-----4p2p0-----4p2p0-|
A|------------------------------------------|
E|------------------------------------------|
e|---------------------------------------|
B|---------------------------------------|
G|-3-------------------------------------|
D|-3--------------3---------2----1----0--|
A|-1--------------3---------2----1----0--|
E|-----------0----3---------2----1----0--|
|
x
x
x
x
e|---------------------------------------|
B|---------------------------------------|
G|-4p2p0-----4p2p0-----4p2p0-----4p2p0---|
D|------4p2p0-----4p2p0-----4p2p0-----4--|
A|---------------------------------------|
E|---------------------------------------|
e|--------------------------------------------|
B|--------------------------------------------|
G|----------------4---------------------------|
D|-2--------------4---------------------------|
A|-2--------------2---------------------------|
E|-2---------0--------------------------------|
|
x
e|--------------------------------------------|
B|--------------------------------------------|
G|-4p2p0-----4p2p0-4p2p0-----4p2p0-4p2p0------|
D|------4p2p0-----------4p2p0-----------4p2p0-|
A|--------------------------------------------|
E|--------------------------------------------|
e|---------------------------------------|
B|---------------------------------------|
G|-3-------------------------------------|
D|-3--------------3----------------------|
A|-1--------------3----------------------|
E|-----------0----3----------------------|
|
x
e|---------------------------------------|
B|---------------------------------------|
G|-4p2p0-----4p2p0-4p2p0-----4p2p0-4p2-0-|
D|------4p2p0-----------4p2p0------------|
A|---------------------------------------|
E|---------------------------------------|
e|--------------------------------|----------------------------------|
B|--------------------------------|----------------------------------|
G|-----------------4--------------|----------------------------------|
D|-2---------------4--------------|----------------------------------|
A|-2---------------2--------------|----------------------------------|
E|-2-------0----------------------|-7-7-7-7-3-3-3-3-5-5-5-5-1-1-1-1--|
|
x
x x x x x x x x x x x x x x x x
e|--------------------------------|----------------------------------|
B|------0--5p2--0--6p3--0--7p4--0-|-8p5--0--9p6--0--10p7--0--11p8--0-|

G|-4p2----------------------------|----------------------------------|
D|--------------------------------|----------------------------------|
A|--------------------------------|----------------------------------|
E|--------------------------------|----------------------------------|
w/ Rhy Fig 3 three times
e|--------------------------------|---------------------------------|
B|-12p9-0-13p10-0-15p12-0-16p13-0-|-17p14-0-18p15-0-19p16-0-20p17-0-|
G|--------------------------------|---------------------------------|
D|--------------------------------|---------------------------------|
A|--------------------------------|---------------------------------|
E|--------------------------------|---------------------------------|
e|---------------------------------|-----------------------------|
B|-21p18-0-22p19-0-22p19-0-22p19-0-|-22p19-0-22p19-0-22p19-0-22\-|
G|---------------------------------|-----------------------------|
D|---------------------------------|-----------------------------|
A|---------------------------------|-----------------------------|
E|---------------------------------|-----------------------------|
/\/\/\/\/\/\/\/\/\/\/\/\/\/\/\/\/\/\/\/\/\/\/\/\
e|-20----------------------------|-(20)------------------------|
B|-X-----------------------------|-(X)-------------------------|
G|-X-----------------------------|-(X)-------------------------|
D|-X-----------------------------|-(X)-------------------------|
A|-0-----------------------------|-(0)-------------------------|
E|-------------------------------|---------------------20\-----|
Gtr 1
e|--------------------------|----------------|
B|--------------------------|----------------|
G|--------------------------|----------------|
D|------------7--\----------|----7--\-/7-----|
A|------------7--\----------|----7--\-/7-----|
E|-0-0-0-0-0--7--\--0-0-0-0-|-0--7--\-/7-----|
|Gtr 2
e|--------------------------|----------------|
B|------------13-\----------|----13----13\---|
G|------------12-\----------|----12----12\---|
D|-5---/---14-------5----/--|-14-------------|
A|--------------------------|----------------|
E|--------------------------|----------------|
e|--------------------------|------------------|
B|--------------------------|------------------|
G|--------------------------|------------------|
D|------------7--\----------|----7--\-/7-------|
A|------------7--\----------|----7--\-/7-------|
E|-0-0-0-0-0--7--\--0-0-0-0-|-0--7--\-/7-------|
|
e|--------------------------|------------------|
B|------------13-\----------|----13----13\-----|
G|------------12-\----------|----12----12\-----|
D|-5---/---14-------5----/--|-14-----------2p0-|
A|--------------------------|------------------|
E|--------------------------|------------------|
INTERLUDE

Both Gtrs
e| --------------------|----------------------|--------------------|
B|X--------------------|----------------------|--------------------|
G| --------------------|----------------------|--------------------|
D| -7h8--7---------7h8-|-7--------------------|-7h8--7---------7h8-|
A|X-5----5--8------5---|-5--8---5-------------|-5----5--8------5---|
E| ---------0---0------|----0---0--0--0--0--0-|---------0---0------|
x
x x x x
x
e|----------------------|---------------------|---------------------|
B|----------------------|---------------------|---------------------|
G|----------------------|---------------------|---------------------|
D|-7--------------------|-7h8--7----------7---|-7h8---7-------------|
A|-5--8---5-------------|-5----5--8----5--8---|-8-8---8--8--8--8--8-|
E|----0---0--0--0--0--0-|---------0----0--7---|-7-7---7--7--7--7--7-|
x x x x
x x x x
e|-----------------------|----------------------- |
B|-----------------------|-----------------------X|
G|-----------------------|----------------------- |
D|-6-----6h7----6--2-----|-2h3-----2------------- | (repeat)
A|-7-----7-7----7--3-----|-3-3-----3--3--3--3--0-X|
E|-6-----6-6----6--2-----|-2-2-----2--2--2--2--0- |
x x x x
e| --------------------------------- |
B|X---------------------------------X|
G| --------------------------------- |
D| --------------------------------- | Play 4 times
A|X---------------------------------X|
E| -0-0-0-0-0-0-0-0-0-0-0-0-0-0-0-0- |
x x x x x x x x x x x x x x x x
e| --------------------------------- |
B|X---------------------------------X|
G| --------------------------------- | (repeat)
D| --------------------------------- |
A|X---------------------------------X|
E| -2-2-2-2-2-2-2-2-2-2-2-2-2-2-2-2- |
x x x x x x x x x x x x x x x x
SOLO 2
Gtr 1
e|------------------------------|---------------|
B|------------------------------|---------------|
G|------------------------------|---------------|
D|------------------------------|---------------|
A|------------------------------|---^^^---------|
E|-2-2-2-2-2-2-2-2-2-2-2-2-2--/-|-9---5---7---3-|
| x x x x x x x x x x x x
|Gtr 2 w/ wah
e|-------0---------(0)----------|---------------|
B|-----0-----------(0)----------|---------0-----|
G|---0-------------(0)----------|---------------|
D|-0---------------(0)----------|---------------|
A|------------------------------|---------------|
E|------------------Bar Dive----|---------Dive--|
-1 -2 1/2 -2 1/2

e|-----------------------------|
B|-----------------------------|
G|-----------------------------|
D|---------2-------------------|
A|---------2-------------------|
E|-2-2-2-2-2-------------------|
| x x x x x
e|-----------------------------|
B|-----------------------------|
G|-3p2p0-----3p2p0-----3p2p0---|
D|-------2---------2---------2-|
A|-----------------------------|
E|-----------------------------|
e|-------------------------------|-------------------------------|
B|-------------------------------|-------------------------------|
G|-------------------------------|-------------------------------|
D|---------2---------------------|---------3---------------------|
A|---------2---------------------|---------3---------------------|
E|-2-2-2-2-2---------------------|-3-3-3-3-3---------------------|
| x x x x
x x x x
e|-------------------------------|-------------------------------|
B|-3p2p0-----3p2p0-----3p2p0-----|-3p2p0-----3p2p0-----3p2p0-----|
G|-------2---------2---------2---|-------3---------3---------3p0-|
D|-------------------------------|-------------------------------|
A|-------------------------------|-------------------------------|
E|-------------------------------|-------------------------------|
e|-------------------------------|---------------------------------|
B|-------------------------------|---------------------------------|
G|-------------------------------|---------5-----------------------|
D|---------3---------------------|---------5-----------------------|
A|---------3---------------------|-3-3-3-3-3-----------------------|
E|-3-3-3-3-3---------------------|---------------------------------|
| x x x x
x x x x
e|-------------------------------|---------------------------------|
B|-------------------------------|-5p3---0-5p3---0-5p3---0-5p3---0-|
G|-3p2p0-----3p2p0-----3p2p0-----|-----5-------5-------5-------5---|
D|-------3---------3---------3p0-|---------------------------------|
A|-------------------------------|---------------------------------|
E|-------------------------------|---------------------------------|
e|---------------------------------|---------------------------------|
B|---------------------------------|---------------------------------|
G|---------5-----------------------|---------------------------------|
D|---------5-----------------------|---------5-----------------------|
A|-3-3-3-3-3-----------------------|---------5-----------------------|
E|---------------------------------|-5-5-5-5-5-----------------------|
| x x x x
x x x x
e|---------------------------------|---------------------------------|
B|---------------------------------|---------------------------------|
G|-5p3---0-5p3---0-5p3---0-5p3---0-|---------------------------------|
D|-----5-------5-------5-------5---|-5p3---0-5p3---0-5p3---0-5p3---0-|
A|---------------------------------|-----5-------5-------5-------5---|
E|---------------------------------|---------------------------------|

e|-------------------------------|--------------------------------|
B|-------------------------------|--------------------------------|
G|-------------------------------|--------------------------------|
D|---------5-----------5---4---3-|---------2---------------2------|
A|---------5-----------5---4---3-|---------2---------------2------|
E|-5-5-5-5-5-----------5---4---3-|-2-2-2-2-2-------2-2-2-2-2------|
| x x x x
x x x x x x x
x x x x
e|-------------------------------|--------------------------------|
B|-------------------------------|--------------------------------|
G|-------------------------------|-3p2p0-----3p2p0-------3p2p0----|
D|-5p3---0-5p3---0-5p3---0-5p3\2-|-------2---------2-----------2--|
A|-----5-------5-------5---------|--------------------------------|
E|-------------------------------|--------------------------------|
e|------------------------------------|------------------------------------|
B|------------------------------------|------------------------------------|
G|------------------------------------|------------------------------------|
D|---------2-----------------2--------|---------3-----------------3--------|
A|---------2-----------------2--------|---------3-----------------3--------|
E|-2-2-2-2-2---------2-2-2-2-2--------|-3-3-3-3-3---------3-3-3-3-3--------|
| x x x x
x x x x
x x x x
x x x x
e|------------------------------------|------------------------------------|
B|-3p2p0----3p2p0----3p2p0----3p2p0---|-3p2p0----3p2p0----3p2p0----3p2p0---|
G|-------2--------2--------2--------2-|-------3--------3--------3--------3-|
D|------------------------------------|------------------------------------|
A|------------------------------------|------------------------------------|
E|------------------------------------|------------------------------------|

e|------------------------------------|------------------------------------|
B|------------------------------------|------------------------------------|
G|------------------------------------|---------5-----------------5--------|
D|---------3-----------------3--------|---------5-----------------5--------|
A|---------3-----------------3--------|-3-3-3-3-3---------3-3-3-3-3--------|
E|-3-3-3-3-3---------3-3-3-3-3--------|------------------------------------|
| x x x x
x x x x
x x x x
x x x x
e|------------------------------------|------------------------------------|
B|------------------------------------|------------------------------------|
G|-3p2p0----3p2p0----3p2p0----3p2p0---|-5p3p0----5p3p0----5p3p0----5p3p0---|
D|-------3--------3--------3--------3-|-------5--------5--------5--------5-|
A|------------------------------------|------------------------------------|
E|------------------------------------|------------------------------------|
e|------------------------------------|------------------------------------|
B|------------------------------------|------------------------------------|
G|---------5-----------------5--------|------------------------------------|
D|---------5-----------------5--------|---------5-----------------5--------|
A|-3-3-3-3-3---------3-3-3-3-3--------|---------5-----------------5--------|
E|------------------------------------|-5-5-5-5-5---------5-5-5-5-5--------|
| x x x x
x x x x
x x x x
x x x x
e|------------------------------------|------------------------------------|
B|------------------------------------|------------------------------------|
G|-5p3p0----5p3p0----5p3p0----5p3p0---|------------------------------------|
D|-------5--------5--------5--------5-|-5p3p0----5p3p0----5p3p0----5p3p0---|
A|------------------------------------|-------5--------5--------5--------5-|
E|------------------------------------|------------------------------------|

e|-----------------------------------|
B|-----------------------------------|
G|-----------------------------------|
D|---------5-------------5--4--3-----|
A|---------5-------------5--4--3-----|
E|-5-5-5-5-5---------5-5-5--4--3-----|
| x x x x
x x x x x
e|-----------------------------------|
B|-----------------------------------|
G|--------------------------------12-|
D|-5p3p0----5p3p0----5p3p0---5/14----|
A|-------5--------5------------------|
E|-----------------------------------|
e|-------------------------------------------------|
B|-------------------------------------------------|
G|-------------------------------------------------|
D|---------2-----------------------2---------------|
A|---------2-----------------------2---------------|
E|-2-2-2-2-2---------------2-2-2-2-2---------------|
| x x x x
x x x x
e|-------------------------------------------------|
B|-------------------------------------------------|
G|-14p12----12-14p12-14p12----12-14p12-14p12----12-|
D|-------14----------------14----------------14----|
A|-------------------------------------------------|
E|-------------------------------------------------|
e|------------------------------------|---------------------------------|
B|------------------------------------|---------------------------------|
G|------------------------------------|---------------------------------|
D|---------2--------------------------|---------------------------------|
A|---------2--------------------------|---------------------------------|
E|-2-2-2-2-2----------------2-2-2-2-X-|-0-0-0-0-0-0-0-0-0-0-0-0-0-0-0-0-|
| x x x x
x x x x
x x x x x x x x x x x x x x x x
e|------------------14--15--17---/----|-24\-----------------------------|
B|------17--15--17----------#---------|---------------------------------|
G|/16-----------------------#---------|---------------------------------|
D|------------------------------------|---------------------------------|
A|------------------------------------|---------------------------------|
E|------------------------------------|---------------------------------|
Both Gtrs. (no wah)
e|---------------------------------|
B|---------------------------------|
G|---------------------------------| Play 3 times
D|---------------------------------|
A|---------------------------------|
E|-0-0-0-0-0-0-0-0-0-0-0-0-0-0-0-0-|
x x x x x x x x x x x x x x x x
e| -----------------------|-------------------|--------------------------------|
B|X-----------------------|-------------------|--------------------------------|
G| ---------10-----9------|-8-----7-----8-----|-9------------------------------|

D| ---------10-----9------|-8-----7-----8-----|-9------------------------------|
A|X---------8------7------|-6-----5-----6-----|-7------------------------------|
E| -0-0-0-0-8------7------|-6-----5-----6-----|-7--0-0-0-0-0-0-0-0-0-0-0-0-0-0-|
x x x x
x x x x x x x x x x x x x x
e|--------------------------------- |
B|---------------------------------X|
G|--------------------------------- |
D|--------------------------------- | (repeat)
A|---------------------------------X|
E|-0-0-0-0-0-0-0-0-0-0-0-0-0-0-0-0- |
x x x x x x x x x x x x x x x x
e|-----------------------|---------------|---------------|---------------|
B|-----------------------|---------------|---------------|---------------|
G|----------10-----9-----|-8-----7-----8-|-9-----7-----6-|-5-----4-----5-|
D|----------10-----9-----|-8-----7-----8-|-9-----7-----6-|-5-----4-----5-|
A|----------8------7-----|-6-----5-----6-|-7-----5-----4-|-3-----2-----3-|
E|-0-0-0-0--8------7-----|-6-----5-----6-|-7-----5-----4-|-3-----2-----3-|
x x x x
e|---------------------------------|---------------------------------|
B|---------------------------------|---------------------------------|
G|---------------------------------|---------------------------------|
D|---------------------------------|---------------------------------|
A|---------------------------------|---------------------------------|
E|-0-0-0-0-0-0-0-0-0-0-0-0-0-0-0-0-|-0-0-0-0-0-0-0-0-0-0-0-0-0-0-0-0-|
x x x x x x x x x x x x x x x x x x x x x x x x x x x x x x x x
e|---------------------------------|--------------------------|
B|---------------------------------|--------------------------|
G|---------------------------------|--------------------------|
D|---------------------------------|------------------3--2--1-| Play 4 times
A|---------------------------------|------------------3--2--1-|
E|-0-0-0-0-0-0-0-0-0-0-0-0-0-0-0-0-|-0-0-0-0-0-0-0-0--3--2--1-|
x x x x x x x x x x x x x x x x x x x x x x x x
e|---------------------------------|------------------------|
B|---------------------------------|------------------------|
G|---------------------------------|------------------------|
D|---------------------------------|------------------3--2--|
A|---------------------------------|------------------3--2--|
E|-0-0-0-0-0-0-0-0-0-0-0-0-0-0-0-0-|-0-0-0-0-0-0-0-0--3--2--|

Play CHORUS
Both Gtrs
e|--------------------------|----------------------------|
B|--------------------------|----------------------------|
G|--------------------------|----------------------------|
D|------------------1--1----|----1--1--------------------| Play 2 times
A|------------------1--1----|----1--1--------------------|

E|-2-1--0--0--0--0--1--1--0-|-0--1--1--0--2-2--2--3-3--3-|
x x x x x x
x x
x x x x x x x
Gtr 1
e|-----------------|---------------------|
B|-----------------|---------------------|
G|-------^^^^^^----|---------------------|
D|-----5-6-----5---|-----5---------5-----|
A|---5-------------|---5---^^^^^^----6---|
E|-0---------------|-0-----3-----0-------|
|
|Gtr 2
e|-----------------|---------------------|
B|-----------------|---------------------|
G|-----------------|---------------------|
D|-0---------------|(0)-----------5--1---|
A|-0---------------|(0)-----------5--1---|
E|-0---------------|(0)-----------5--1---|
x x

Play 4 times

Both Gtrs
e|------------------------|-------------|
B|------------------------|-------------|
G|------------------------|-------------|
D|-3-----5-----3-----5----|-------------| Play 3 times
A|-3-----5-----3-----5----|-3h5--3h5----|
E|-3--0--5--0--3--0--5--0-|---0----0--0-|
x
x
x
x
x
e|------------------------|-----------------------|---------------------|
B|------------------------|-----------------------|---------------------|
G|------------------------|-----------------------|-7-------------------|
D|-3-----5-----3-----5----|------------------5----|-7--------------5----|
A|-3-----5-----3-----5----|-3h5-----------------6-|-5-----------------6-|
E|-3--0--5--0--3--0--5--0-|---0----0--3---0-------|------0--3---0-------|
x
x
x
x
x
x
x
e|--------------------|--------------------|------------------|
B|--------------------|--------------------|------------------|
G|-7------------------|-7------------------|----------------^^^
D|-7------3------5----|-7------3------5----|-------5--6-----5-|
A|-5------3---------6-|-5------3---------6-|----5-------------|
E|-----0--3---0-------|-----0--3---0-------|-0----------------|
x
x
x
x
e|-------------|-------------------|
B|-------------|-------------------|
G|^^^^^^^^^^^^^^^^^^^^^^-----------|
D|(5)----------|(5)-----------5--0-|
A|-------------|-----------5-----0-|
E|-------------|--------0--------0-|
x x
Key
/

Slide Up

\
h
p
^^^^^^
x
#
+
/\/\/\
|
|X
|
|
|X
|

Slide down
hammer
pull off
Vibrato
Palm Mute
Tremolo
Harmonic (slide)
Wide Vibrato

|
X|
|
| Repeats
X|
|

Metallica - All Nightmare Long (ver 5) TabMetallica - All Nightmare Long Tab ::
indexed at Ultimate Guitar.
All Nightmare Long tabs @ 911Tabs
Send "All Nightmare Long" Ringtone to your Cell
Learn how to play "All Nightmare Long" with online video lessons

Sign up to vote on this title
UsefulNot useful