You are on page 1of 8

Artist: Bullet For My Valentine

Album: Scream Aim Fire
Song: Say Goodnight (Acoustic)
---------------------------------------------------------------------------Tabbed By: Christian Fletcher
E-mail: guitardude465@yahoo.com

I first herd this song on the album and thought it was amazing! Then i herd
the acuostic
and had to learn it. I looked up the tab and it sounded wierd. So i remade it to
make
sound how it should. If you are in the right tuning it should sound 100%
correct. The
is laid out from top to bottom in order. It tells you how many times to play
each bar. So
it is... enjoy!

Tuning:

d
A
F
D
A
D

--------Intro |

---------

|--------------------------|--------------------------|
|--------------------------|--------------------------|
|--------------0-----------|--------0-----------0-----|
|--------2--------2-----2--|-----------2-----2-----2--|
|-----5-----5--------5-----|-----5--------3-----------|
|--0-----------------------|--0-----------------------|

--------Verse 1 |
---------

|--------------------------|--------------------------|
|--------------5-----------|--------------------------|
|--------4--------4--------|--------0--------0--------|
|-----------3--------3-----|-----2--------2-----2-----|
|-----5-----------------0--|--1--------3-----------3--|
|--0-----------------------|--------------------------|

|--------------------------|------|
|--------------5-----------|--3~--|
|--------4--------4--------|--0~--|
|-----------3--------3-----|--2~--|
|-----5-----------------0--|--3~--|

|--0-----------------------|------|

|--------| |--------------------------|--------------------------|
|--------| |--------------5-----------|--------------------------|
|--------| |--------4--------4--------|--------0--------0--------|
|--------| |-----------3--------3-----|-----2--------2-----2-----|
|--------| |-----5-----------------0--|--1--------3-----------3--|
|--3--2--| |--0-----------------------|--------------------------|

--------Chorus |
---------

|--------------0-----------|--------0-----------------|
|--------3--------3--3-----|-----------3--------------|
|-----------0--------------|-----0--------------0-----|
|-----0--------------------|-----------------2-----2--|
|--1--------------------1--|--1-----------3-----------|
|--------------------------|--------------------------|

|--------------0-----------|--------0-----------------|
|--------3--------3--3-----|-----------3--------------|
|-----------0--------------|-----0--------------0-----|
|-----0--------------------|-----------------2-----2--|
|--------------------------|--------------3-----------|

|--0--------------------0--|--0-----------------------|

|--------------0-----------|--------0-----------------|
|--------3--------3--3-----|-----------3--------------|
|-----------0--------------|-----0--------------0-----|
|-----0--------------------|-----------------2-----2--|
|--1--------------------1--|--1-----------3-----------|
|--------------------------|--------------------------|

|--0~--|
|--5~--|
|--4~--|
|--0~--|
|--5~--|
|--0~--|

--------Verse 2 |
---------

|--------| |--------------------------|--------------------------|
|--------| |--------------5-----------|--------------------------|
|--------| |--------4--------4--------|--------0--------0--------|
|--------| |-----------3--------3-----|-----2--------2-----2-----|
|--------| |-----5-----------------0--|--1--------3-----------3--|

|--3--2--| |--0-----------------------|--------------------------|

|--------------------------|------|
|--------------5-----------|--3~--|
|--------4--------4--------|--0~--|
|-----------3--------3-----|--2~--|
|-----5-----------------0--|--3~--|
|--0-----------------------|------|

|--------| |--------------------------|--------------------------|
|--------| |--------------5-----------|--------------------------|
|--------| |--------4--------4--------|--------0--------0--------|
|--------| |-----------3--------3-----|-----2--------2-----2-----|
|--------| |-----5-----------------0--|--1--------3-----------3--|
|--3--2--| |--0-----------------------|--------------------------|

--------Chorus |
---------

|--------------0-----------|--------0--------------------|
|--------3--------3--3-----|-----------3-----------------|
|-----------0--------------|-----0--------------0--------|
|-----0--------------------|-----------------2-----2-----|
|--1--------------------1--|--1-----------3-----------3--|

|--------------------------|-----------------------------|

|--------------0-----------|--------0--------------------|
|--------3--------3--3-----|-----------3-----------------|
|-----------0--------------|-----0--------------0--------|
|-----0--------------------|-----------------2-----2-----|
|--------------------------|--------------3-----------3--|
|--0--------------------0--|--0--------------------------|

|--------------0-----------|--------0--------------------|
|--------3--------3--3-----|-----------3-----------------|
|-----------0--------------|-----0--------------0--------|
|-----0--------------------|-----------------2-----2-----|
|--1--------------------1--|--1-----------3-----------3--|
|--------------------------|-----------------------------|

--------Verse 3 |
---------

|--------------------------|-----------------------------|
|--------------------------|-----------------------------|
|--------------------------|-----------------------------|
|--0--0--0--0--0--0--0--0--|--0--3--3--3--3--3--5--5--5--|
|--0--0--0--0--0--0--0--0--|--0--1--1--3--3--3--3--3--3--|

|--0--0--0--0--0--0--0--0--|--0--------3--3--3-----------|

|--------------------------|-----------------------------------|
|--------------------------|-----------------------------------|
|--------------------------|-----------------------------------|
|--0--0--0--0--0--0--0--0--|--0--1~----1--1--3--3--3--5--5--5--|
|--0--0--0--0--0--0--0--0--|--0--3~----3--3--3--3--3--3--3--3--|
|--0--0--0--0--0--0--0--0--|--0--------------3--3--3-----------|

|--0~---------------------------|
|--0~---------------------------|
|--0~----------0--------0-------|
|--0~-------2--------2-----2----|
|--0~----1--------3----------3--|
|--0~---------------------------|

|--------------------------|-----------------------------|
|--------------------------|-----------------------------|
|--------------------------|-----------------------------|
|--0--0--0--0--0--0--0--0--|--0--3--3--3--3--3--5--5--5--|
|--0--0--0--0--0--0--0--0--|--0--1--1--3--3--3--3--3--3--|
|--0--0--0--0--0--0--0--0--|--0--------3--3--3-----------|

|--------------------------|-----------------------------------|
|--------------------------|-----------------------------------|
|--------------------------|-----------------------------------|

|--0--0--0--0--0--0--0--0--|--0--1~----1--1--3--3--3--5--5--5--|
|--0--0--0--0--0--0--0--0--|--0--3~----3--3--3--3--3--3--3--3--|
|--0--0--0--0--0--0--0--0--|--0--------------3--3--3-----------|

|--0~--|
|--0~--|
|--0~--|
|--0~--|
|--0~--|
|--0~--|

THE END!

any questions or comments my e-mail is guitardude465@yahoo.com