Intro >

e|-------------------7/9-7--------------------------------------------|
B|--7-9-10---7-9-10--------9h10--10p9-7-------------------------------|
G|--------------------------------------------------------------------|
D|--------------------------------------------------------------------|
A|--------------------------------------------------------------------|
E|--------------------------------------------------------------------|
Solo >
e|-------------------9/11-9---------------------------9/11-9----9h11-11-|
B|--9-11-12--9-11-12-------12-12p11-9--------9-11-12---------12---------|
G|----------------------------------------11----------------------------|
D|----------------------------------------------------------------------|
A|----------------------------------------------------------------------|
E|----------------------------------------------------------------------|
e|--9-------------------------------------------------------------------|
B|----12-11----11-9-----------------------------------------------------|
G|------------------12-10-----------------------------------------------|
D|------------------------13-11-9---------------------------------------|
A|----------------------------------------------------------------------|
E|----------------------------------------------------------------------|
Walk With me And Maybe ...
e|----------------------------------------------------------------------|
B|----7-9-10------------------------------------------------------------|
G|----------------------------------------------------------------------|
D|----------------------------------------------------------------------|
A|----------------------------------------------------------------------|
E|----------------------------------------------------------------------|
So Soon Become...
e|----------------------------------------------------------------------|
B|----9-10-7------------------------------------------------------------|
G|----------------------------------------------------------------------|
D|----------------------------------------------------------------------|
A|----------------------------------------------------------------------|
E|----------------------------------------------------------------------|

Sign up to vote on this title
UsefulNot useful