You are on page 1of 1

“Bow Chicka Wow Wow”

By Mike Posner

Solo:
Phrase 1
A|---------------------
E|--5s7s5--3--2--------
C|----------------4-2--
G|---------------------

Phrase 2
A|---------------------
E|--3s5s3--2-----------
C|------------4--------
G|---------------------

Phrase 3
A|-------5--7------------
E|--5s7--------5b---3----
C|--------------------4--
G|-----------------------

A|---------------------
E|--3h5--3--5s7--3-----
C|---------------------
G|---------------------

Bridge Riff:
A|--0h2p0--------0h2p0--------------
E|---------3--0---------3--0--------
C|----------------------------------
G|----------------------------------

Two beat rest

A|--0h2p0--------0h2p0--------5--2--
E|---------3--0---------3--0--------
C|----------------------------------
G|----------------------------------