You are on page 1of 18

Tablature for Robbie Cormier's Featherbeard

file:///Users/Cormier/Desktop/Featherbeard.html

#----------------------------------PLEASE NOTE---------------------------------#
#This file is the author's own work and represents their interpretation of the #
#song. You may only use this file for private study, scholarship, or research. #
#------------------------------------------------------------------------------#

FEATHERBEARD
As recorded by Robbie Cormier
Music by Robbie Cormier
Arranged by Robbie Cormier

Transcribed by Robbie Cormier

Am9
x0550x

Csus4+5/F
1331xx

Csus4
x330xx

Gtr I (E A D G B E) - 'Piano'
Gtr II (E A D G B E) - 'Pizzicato'
Gtr III (E A D G B E) - 'Acoustic Guitar'
Gtr IV (E A D G B E) - 'Strings'
Intro
Q=115
Am9
Csus4+5/Csus4
4/4
Gtr I
W
Q +E
E +H
|--------------------|-------------------------|
|-0------------------|-------------------------|
|-5------------------|--1--(1)--0-(0)----------|
|-5------------------|--3--(3)--3-(3)----------|
|-0------------------|--3--(3)--3-(3)----------|
|--------------------|--1--(1)-----------------|
|
| Gtr II
| Q
E E Q
E E
Q
E
E E
E E E
|--------------------|-------------------------|
|--------------------|-------------------------|
|--------------------|-------------------------|
|----------17--------|-17---------17--18-17-14-|
|----15-17-----15-17-|-----15--17-----15-17-15-|
|----17-19-20--17-19-|-20--17--19-20-----------|

Am9
Csus4/F
W
E E E E +H
|--------------------|------------------------|
|-0------------------|------------------------|
|-5------------------|----------0-(0)---------|
|-5------------------|-------3----------------|
|-0------------------|----3-------------------|
|--------------------|--1---------------------|
|
| Q
E E Q
E E
Q
E E E
E Q
|--------------------|------------------------|

1 of 18

11-04-03 10:14 PM

Tablature for Robbie Cormier's Featherbeard

file:///Users/Cormier/Desktop/Featherbeard.html

|--------------------|------------------------|
|--------------------|------------------------|
|----------17--------|-17---------14--17-14---|
|----15-17-----15-17-|------15-17-------------|
|----17-19-20--17-19-|-20---17-19-------------|

Am9
Csus4+5/Csus4
W
Q +E
E +H
|--------------------|-------------------------|
|-0------------------|-------------------------|
|-5------------------|--1--(1)--0-(0)----------|
|-5------------------|--3--(3)--3-(3)----------|
|-0------------------|--3--(3)--3-(3)----------|
|--------------------|--1--(1)-----------------|
|
| Q
E E Q
E E
Q
E
E E
E E E
|--------------------|-------------------------|
|--------------------|-------------------------|
|--------------------|-------------------------|
|----------17--------|-17---------17--18-17-14-|
|----15-17-----15-17-|-----15--17-----15-17-15-|
|----17-19-20--17-19-|-20--17--19-20-----------|

Am9
Csus4/F
W
E E E E +H
|--------------------|---------------------------|
|-0------------------|---------------------------|
|-5------------------|----------0-(0)------------|
|-5------------------|-------3-------------------|
|-0------------------|----3----------------------|
|--------------------|--1------------------------|
|
| Q
E E Q
E E
Q
E E E
E E
E
|--------------------|---------------------------|
|--------------------|------------12--13-12------|
|--------------------|-----------------------12--|
|----------17--------|-17---------14--17-14-(14)-|
|----15-17-----15-17-|------15-17----------------|
|----17-19-20--17-19-|-20---17-19----------------|

Am9
Csus4+5/FCsus4
W
Q
+E
E +H
|------------------------|--------------------------|
|---0--------------------|--------------------------|
|---5--------------------|--1---(1)--0-(0)----------|
|---5--------------------|--3---(3)--3-(3)----------|
|---0--------------------|--3---(3)--3-(3)----------|
|------------------------|--1---(1)-----------------|
|
|
Q
E E Q
E E
Q
E
E E
E E E
|------------------------|--------------------------|
|------------------------|--------------------------|
|------------------------|--------------------------|
|--------------17--------|-17----------17--18-17-14-|
|--------15-17-----15-17-|------15--17-----15-17-15-|
|--------17-19-20--17-19-|-20---17--19-20-----------|
|

2 of 18

11-04-03 10:14 PM

Tablature for Robbie Cormier's Featherbeard

file:///Users/Cormier/Desktop/Featherbeard.html

| Gtr III
|
E E Q
Q
E E
E E E
E E
E E E
|------------------------|--------------0-----------|
|------------------------|-----------3------3--1p=0-|
|------------------------|-------1------------------|
|--------------14---0h=2h|==5-3---------------------|
|-/10-12--0--------------|--------------------------|
|------------------------|--------------------------|

Am9
Csus4/F
W
E E E E +H
|--------------------------|-----------------------|
|---0----------------------|-----------------------|
|---5----------------------|----------0-(0)--------|
|---5----------------------|-------3---------------|
|---0----------------------|----3------------------|
|--------------------------|--1--------------------|
|
|
Q
E E Q
E
E
Q
E E E
E Q
|--------------------------|-----------------------|
|--------------------------|-----------------------|
|--------------------------|-----------------------|
|--------------17----------|-17---------14--17-14--|
|--------15-17------15--17-|------15-17------------|
|--------17-19-20---17--19-|-20---17-19------------|
|
|
E E Q
Q
+E
E
E E E E +H
|--------------------------|-------7---------------|
|--------------------------|----8-----8-(8)--------|
|--------------------------|--9--------------------|
|--------------10--(10)--9-|-----------------------|
|-/10-12--0----------------|-----------------------|
|--------------------------|-----------------------|

Am9
Csus4+5/F Csus4
W
Q
+E
E +H
|------------------------|---------------------------|
|---0--------------------|---------------------------|
|---5--------------------|--1----(1)--0-(0)----------|
|---5--------------------|--3----(3)--3-(3)----------|
|---0--------------------|--3----(3)--3-(3)----------|
|------------------------|--1----(1)-----------------|
|
|
Q
E E Q
E E
Q
E
E E
E E E
|------------------------|---------------------------|
|------------------------|---------------------------|
|------------------------|---------------------------|
|--------------17--------|-17-----------17--18-17-14-|
|--------15-17-----15-17-|-------15--17-----15-17-15-|
|--------17-19-20--17-19-|-20----17--19-20-----------|
|
|
E E Q
Q
E E
E E E
E E
E E E
|------------------------|---------------0------0----|
|------------------------|------------6------8-----0-|
|------------------------|--------7------------------|
|--------------14---0h=2h|==3-/6---------------------|
|-/10-12--0--------------|---------------------------|
|------------------------|---------------------------|

3 of 18

11-04-03 10:14 PM

Tablature for Robbie Cormier's Featherbeard

file:///Users/Cormier/Desktop/Featherbeard.html

Am9
Csus4/F
W
E E E E +H
|------------------------|-------------------------|
|---0--------------------|-------------------------|
|---5--------------------|------------0-(0)--------|
|---5--------------------|---------3---------------|
|---0--------------------|------3------------------|
|------------------------|---1---------------------|
|
|
Q
E E Q
E E
Q
E E E
E Q
|------------------------|-------------------------|
|------------------------|-------------------------|
|------------------------|-------------------------|
|--------------17--------|--17----------14--17-14--|
|--------15-17-----15-17-|--------15-17------------|
|--------17-19-20--17-19-|--20----17-19------------|
|
|
E E Q
Q
E E
+Q
E E +H
|------------------------|-------------------------|
|------------------------|------------8-(8)--------|
|------------------------|--------10---------------|
|--------------10---9-10-|-(10)--------------------|
|-/10-12--0--------------|-------------------------|
|------------------------|-------------------------|

Cadd4/D
Fmaj7sus4/D
C9
Asus4/B
Am9
Q
+E
E +H
Q
+E
E +Q
E
E
|-----------------------------|-----------------------------|
|--5----(5)--5-(5)------------|--3-----(3)--3-(3)----(3)--0-|
|--5----(5)--3-(3)------------|--3-----(3)--2-(2)-----1---5-|
|--3----(3)--3-(3)------------|--2-----(2)--2-(2)----(2)--5-|
|--5----(5)--5-(5)------------|--3-----(3)--2-(2)----(2)--0-|
|-----------------------------|-----------------------------|
|
| E E E
E E
E
E E
E
E E
E E
E E
E
|-----------------------------|-----------------------------|
|-15-13--------15--13------13-|-----15-13-------------------|
|-------14--12----------14----|-----15-14--14---------------|
|-------15-----20--19---15-17-|---------------17--15-18--19-|
|-15-17-----17----------------|------------17-19--17-15--20-|
|-----------------------------|-----------------------------|
|
| H
E
S S E E
+E
E Q
E
E +E
E
|---------------------------0-|-(0)-----6----------6-(6)--5-|
|---------------------------1-|-(1)-----6----------6-(6)--6-|
|---------------------------2-|-(2)-/7--------/7----------5-|
|-------------------0h2h=3----|---------------------------5-|
|-----------------------------|-----------------------------|
|-----------------------------|-----------------------------|

Csus4+5/Csus4
Cadd4
+W
Q +E
E +Q
Q
|----------------------|--------------------------||
|-(0)------------------|--------------------------||
|-(5)------------------|--1--(1)--0-(0)-----1-----||
|-(5)------------------|--3--(3)--3-(3)-----3-----||

4 of 18

11-04-03 10:14 PM

Tablature for Robbie Cormier's Featherbeard

file:///Users/Cormier/Desktop/Featherbeard.html

|-(0)------------------|--3--(3)--3-(3)-----2-----||
|----------------------|--1--(1)------------------||
|
| Q
E E Q
E E
Q
E
E E
E E E
|----------------------|--------------------------||
|----------------------|--------------------------||
|----------------------|--------------------------||
|------------17--------|-17---------17--18-17-14--||
|------15-17-----15-17-|-----15--17-----15-17-15--||
|------17-19-20--17-19-|-20--17--19-20------------||
|
| +W
W
|-(5)------------------|--------------------------||
|-(6)------------------|--------------------------||
|-(5)------------------|--------------------------||
|-(5)------------------|--------------------------||
|----------------------|--------------------------||
|----------------------|--------------------------||

Verse
Cadd2
Gmaj7sus2
C
E5/A
Em
7/4
Gtr I
E E Q.
S S Q.
Q.
Q
E E Q.
S S Q.
E E E E E
|-----0----------------------------|-----------------------------------|
|---3------------------------------|-----------------------------------|
|-0--------------2------4------5---|--4--5-4----------0----------------|
|-2--------------4-------------2---|-(2)--------------2------4-5-4-----|
|-3---------------------2------3---|--0-----------0-3-2------------5-2-|
|------------0-1-3-----------------|------------------0----------------|
|
H.
W
|
| Gtr III
| E E E E E E
E E E E E E E E
E E E E E E
E E E E E E E E
|--------------------------0---0---|---------------------------0---0---|
|----------0----------3------3---0-|------------0----------3-----3---0-|
|-----0------2------2---2----------|-------0------2------2---2---------|
|---2----2-------4-----------------|-----2----2-------4----------------|
|-3--------------------------------|--0--------------------------------|
|----------------------------------|-----------------------------------|

Cadd2

E5/Ab

G#m7

Cadd2
4/4

E5/Ab N.C.

|-----3-----|
E E Q
+E E Q
+E E Q
Q
Q
E E Q
+E E Q
a E E E E S S E E E
|-----0---(0)-------------------------2-|------0---(0)-------|-------------------------|
|---3---------------------------------0-|----3---------------|-3h=5-3------------------|
|-0-------------4---(4)---------------1-|-0--------------4---|--------4-2-1-2-1--------|
|-2-----------5-2---(2)-------4---------|-2------------0-2---|------------------2------|
|-3-----------7---------2-----2---------|-3------------0-----|--------------------2----|
|---------------4---(4)---4-------------|----------------4---|----0--------------------|
|
H.
Q
W
|
| E E E E E E E E E E E E
Q
E E E E E E E E
E E E E S S E E E
|--------------------0----0-----(<5>)---|--------------------|------------------5-8----|
|----------0------3-----3---0---(<5>)---|-----------0----5-7-|---/8-7-----5-7-5--------|
|-----0-------2-4-----------------------|------0-------2-----|--------9-7--------------|
|---2---2-------------------------------|----2---2-----------|-------------------------|

5 of 18

11-04-03 10:14 PM

Tablature for Robbie Cormier's Featherbeard

file:///Users/Cormier/Desktop/Featherbeard.html

|-3-------------------------------------|-3------------------|-------------------------|
|---------------------------------------|--------------------|-------------------------|

Cadd2
Gmaj7
Cadd2
F#m/B
B5
7/4
E E Q.
S S Q.
Q.
Q
E E Q
+E E Q.
Q.
Q
|-----0----------------------------|-----0---(0)-----------------2---|
|---3------------------------------|---3-----------2------0----------|
|-0--------------4-----------------|-0-------------2-------------4---|
|-2--------------4-----------------|-2-------------4-----------------|
|-3---------------------2------5---|-3-------------2-----------------|
|------------0-1-3-----------------|-------------0-------------------|
|
| E E E E E E
E E E E E E E E
E E E E E E E E E E E E E E
|--------------------------0---0---|-------------------------0---0---|
|----------0----------3------3---0-|----------0---------2------3---0-|
|-----0------2------2---2----------|-----0-------2----2---2----------|
|---2----2-------4-----------------|---2---2-------4-----------------|
|-3--------------------------------|-0-------------------------------|
|----------------------------------|---------------------------------|

E5/Ab

G#m7

Cadd2
4/4

E5/Ab N.C.

|-----3-----|
E E Q
E E Q
+E E Q
Q
Q
E E Q
+E E Q
a E E E E S S E E E
|-3-5-7---(7)-------------------------2-|------0---(0)-------|--------------------------|
|---5-8-------------------------------0-|----3---------------|-3h=5-3-------------------|
|-5--------9----4---(4)---------------1-|-0--------------4---|---------4--2-1-2-1-------|
|-2-----------5-2---(2)-------4---------|-2------------0-2---|---------------------2----|
|-3-----------7---------2-----2---------|-3------------0-----|------------0-2---------2-|
|---------------4---(4)---4-------------|----------------4---|----0---(0)-------0-(0)---|
|
H.
Q
Q
+E E E
E +Q
|
| E E E E E E E E E E E E
Q
E E E E E E E E
E E E E S S E E E
|--------------------0----0-----(<5>)---|--------------------|---------------------5--8-|
|----------0------3-----3---0---(<5>)---|-----------0----5-7-|---/8-7-------5-7-5-------|
|-----0-------2-4-----------------------|------0-------2-----|---------9--7-------------|
|---2---2-------------------------------|----2---2-----------|--------------------------|
|-3-------------------------------------|-3------------------|--------------------------|
|---------------------------------------|--------------------|--------------------------|

Cadd2
Gmaj7sus2
C
E5/A
Em
7/4
Gtr I
E E Q.
S S Q.
Q.
Q
E E Q.
S S Q.
E E E E E
|-----0----------------------------|------------------------------------|
|---3------------------------------|------------------------------------|
|-0--------------2------4------5---|--4--5-4-----------0----------------|
|-2--------------4-------------2---|-(2)---------------2------4-5-4-----|
|-3---------------------2------3---|--0------------0-3-2------------5-2-|
|------------0-1-3-----------------|-------------------0----------------|
|
H.
W
|
| Gtr II
| q
E E E E
q
E E E E E E
q
E
E E E
q
E E E E E E
|----------------------------------|------------------------------------|
|----------------------------------|------------------------------------|

6 of 18

11-04-03 10:14 PM

Tablature for Robbie Cormier's Featherbeard

file:///Users/Cormier/Desktop/Featherbeard.html

|---------------------4-5--4---4-5-|--7-----------------------4-7---4-7-|
|-5---5--7-5-----5----5-7--5-7-5-7-|--9----9--10-9-7---5----7-5-7-7-5---|
|------------9---------------9-----|------------------------9-----9---9-|
|----------------------------------|------------------------------------|
|
| Gtr III
| E E E E E E
E E E E E E E E
E E E
E E E
E E E E E E E E
|--------------------------0---0---|----------------------------0---0---|
|----------0----------3------3---0-|-------------0----------3-----3---0-|
|-----0------2------2---2----------|-------0-------2------2---2---------|
|---2----2-------4-----------------|-----2-----2-------4----------------|
|-3--------------------------------|--0---------------------------------|
|----------------------------------|------------------------------------|

Cadd2

E5/Ab

G#m7

Cadd2
4/4

E5/Ab N.C.

|---3---|
E E Q
+E
E Q
+E E Q
Q
Q
E E Q
+E
E Q
a E E E E S S E E E
|------0----(0)---------------------------2---|------0----(0)-----------|------------------------------|
|----3------------------------------------0---|----3--------------------|-3h=5--3----------------------|
|--0------------------4----(4)------------1---|-0-------------------4---|----------4--2--1--2-1--------|
|--2----------------5-2----(2)--------4-------|-2-----------------0-2---|-----------------------2------|
|--3----------------7----------2------2-------|-3-----------------0-----|-------------------------2----|
|---------------------4----(4)----4-----------|---------------------4---|----0-------------------------|
|
H.
Q
W
|
| E E E E
E
E E E E E E E
E
E
E E E E
E
E E E
E E E E E
E E E
|---------------------------------------------|-------------------------|------------------------------|
|--8---8-----8--------9-----9-----9-----9-----|-8----8-----8--------9---|----9-----9-----9------9------|
|----9---9----------9----9-----9----9-------9-|----9---9----------9---9-|-------9-----9-------9---9----|
|---------------------------------------------|-------------------------|------------------------------|
|---------------------------------------------|-------------------------|------------------------------|
|---------------------------------------------|-------------------------|------------------------------|
|
| ~~
| Q
E E
E
a E Q.
Q.
Q
Q
E E
E
a E Q
+E E +Q
Q
Q
|------3--------------------------------------|------3------------------|------------------------------|
|-/5-----3/--5--(5)s7-9-----------------------|-5------3/--5--(5)s7-9---|---(9)---(5)------------------|
|------------4--(4)s7-9--------9--------------|------------4--(4)s7-9---|---(9)-9-------11\-----7------|
|---------------------------------------9-----|-------------------------|----------------9-------------|
|---------------------------------------------|-------------------------|------------------------------|
|---------------------------------------------|-------------------------|------------------------------|

Pre-Chorus
Gmaj7suG/BC
Dsus2/C#
E/B
Gsus4
G/F
E E E E +E E E E
+Q
S S E E E E E
E E E E +E E E E
||---------------------|------0-------------|---------------------|
||o------1---------0-3-|-(3)----3-2---------|------1----------0---|
||-----0---------0---2-|-(2)--------1-2-1---|---0-----------0---2-|
||--4------0-(0)-----2-|-(2)--------2-----2-|-0-------0-(0)-------|
||o-3------2---------4-|-(4)--------2-------|---------------------|
||---------------------|--------------------|-3---(3)-1-(1)-------|
Q.
H
E
+H
H
Q
+E E +H

1.
Gsus4
E E E

7 of 18

G/B
E E

E E E

2.
Gsus4
E E E

G/B
E E

Asus2
E E E

11-04-03 10:14 PM

Tablature for Robbie Cormier's Featherbeard

file:///Users/Cormier/Desktop/Featherbeard.html

|-----------------5-3--||-----------------5-7--||
|------1--------3-0---o||------1--------3-0----||
|---0--------0--0---2--||---0--------0--0---2--||
|-0-------0------------||-0-------0------------||
|---------2-(2)-------o||---------2-(2)--------||
|-3---(3)--------------||-3---(3)--------------||
Q
+E E +E E E E
Q
+E E +E E E E

Chorus
Am
E7sus2
A5/D
E7
W
W
Q
Q
Q
E E
|-8-------------------|-10----------------|-15----14--------------|
|---------------------|--7----------------|-17----15----15--------|
|-2-------------------|-------------------|-------12-14-16--12-11-|
|-2-------------------|--2----------------|-12-14-----------14-12-|
|-0-------------------|--2----------------|-----------------------|
|---------------------|--0----------------|-----------------------|
|
E E E E Q
E E
|
| Gtr III
| E E E E E E a E e
+E E E E E E E E
E E q
H
|-----0---5-7-(7)s2-3-|-(3)-------0-------|-----------------------|
|---0---0-------------|-----0-------3-----|--------3----^3--------|
|-2-------------------|-------5-------4---|-----0--2----^2--------|
|---------------------|---------5-------5-|--4-----4----^0--------|
|---------------------|-------------------|-----------------------|
|---------------------|-------------------|-----------------------|

Amadd2
Emadd2
Esus4/AA
W
W
H
H
|----------------------|-------------------|-------------------|
|--0-------------------|--7----------------|-3-------2---------|
|--9-------------------|--4----------------|-4-----------------|
|-10-------------------|--5----------------|-4-----------------|
|--0-------------------|--7----------------|-5-----------------|
|----------------------|-------------------|-------------------|
|
| E E E E E E a E e
+E E E E E E E E
E E q
Q E E
|------0---5-7-(7)s2-3-|-(3)-------0-------|-------------------|
|----0---0-------------|-----0-------3-----|-----3--^2--3-2----|
|--2-------------------|-------5-------4---|---0-2--^2---------|
|----------------------|---------5-------5-|-4---4--^2---------|
|----------------------|-------------------|--------^0---------|
|----------------------|-------------------|-------------------|

Gadd2
E7sus2
A5/D
E7
W
W
Q
Q
Q
E E
|-7-------------------|-10----------------|-15----14--------------|
|-8-------------------|--7----------------|-17----15----15--------|
|---------------------|-------------------|-------12-14-16--12-11-|
|-7-------------------|--2----------------|-12-14-----------14-12-|
|-5-------------------|--2----------------|-----------------------|
|-3-------------------|--0----------------|-----------------------|
|
E E E E Q
E E
|
| E E E E E E a E e
+E E E E E E E E
E E q
H
|-----3---5-7-(7)s2-3-|-(3)-------0-------|-----------------------|

8 of 18

11-04-03 10:14 PM

Tablature for Robbie Cormier's Featherbeard

file:///Users/Cormier/Desktop/Featherbeard.html

|---3---3-------------|-----3-------3-----|--------3----^3--------|
|-0-------------------|-------4-------4---|-----0--2----^2--------|
|---------------------|---------5-------5-|--4-----4----^0--------|
|---------------------|-------------------|-----------------------|
|---------------------|-------------------|-----------------------|

Amadd2
Emadd2
Esus4/A A
W
W
H..
E
|----------------------|-------------------|-------------------------|
|--0-------------------|--7----------------|-3------------------0----|
|--9-------------------|--4----------------|-4------------------5----|
|-10-------------------|--5----------------|-4------------------5----|
|--0-------------------|--7----------------|-5------------------0----|
|----------------------|-------------------|-------------------------|
|
| E E E E E E a E e
+E E E E E E E E
E
E q
Q
Q
|------0---5-7-(7)s2-3-|-(3)-------0-------|--------------(<5>)------|
|----0---0-------------|-----0-------3-----|-------3--^3--(<5>)------|
|--2-------------------|-------5-------4---|-----0-2--^2-------------|
|----------------------|---------5-------5-|-4-----4--^0-------------|
|----------------------|-------------------|-------------------------|
|----------------------|-------------------|-------------------------|

Pre-Verse
Am9
Csus4+5/Csus4
+W
Q +E
E +H
|----------------------|-------------------------|
|-(0)------------------|-------------------------|
|-(5)------------------|--1--(1)--0-(0)----------|
|-(5)------------------|--3--(3)--3-(3)----------|
|-(0)------------------|--3--(3)--3-(3)----------|
|----------------------|--1--(1)-----------------|
|
| Gtr II
| Q
E E Q
E E
Q
E
E E
E E E
|----------------------|-------------------------|
|----------------------|-------------------------|
|----------------------|-------------------------|
|------------17--------|-17---------17--18-17-14-|
|------15-17-----15-17-|-----15--17-----15-17-15-|
|------17-19-20--17-19-|-20--17--19-20-----------|

Am9
Csus4/F
W
E E E E +H
|--------------------|-----------------------|
|-0------------------|-----------------------|
|-5------------------|----------0-(0)--------|
|-5------------------|-------3---------------|
|-0------------------|----3------------------|
|--------------------|--1--------------------|
|
| Q
E E Q
E E
Q
E E E
E Q
|--------------------|-----------------------|
|--------------------|-----------------------|
|--------------------|-----------------------|
|----------17--------|-17---------14--17-14--|
|----15-17-----15-17-|------15-17------------|

9 of 18

11-04-03 10:14 PM

Tablature for Robbie Cormier's Featherbeard

file:///Users/Cormier/Desktop/Featherbeard.html

|----17-19-20--17-19-|-20---17-19------------|

Am9
Csus4+5/F
Csus4
W
Q
+E
E
+H
|-----------------------------|----------------------------------|
|-0---------------------------|----------------------------------|
|-5---------------------------|--1-----(1)---0---(0)-------------|
|-5---------------------------|--3-----(3)---3---(3)-------------|
|-0---------------------------|--3-----(3)---3---(3)-------------|
|-----------------------------|--1-----(1)-----------------------|
|
| Q
E
E
Q
E
E
Q
E
E
E
E
E E
|-----------------------------|----------------------------------|
|-----------------------------|----------------------------------|
|-----------------------------|----------------------------------|
|----------------17-----------|-17---------------17----18--17-14-|
|-------15---17--------15--17-|--------15---17---------15--17-15-|
|-------17---19--20----17--19-|-20-----17---19---20--------------|
|
| Gtr III
| e S S S S E.
E. Q
e S S S S S S S S +E
Q
|-----------------------------|----------------------------------|
|-----------------------------|----------------------6-(6)--5----|
|-----------------------9\----|------7p=5p0----------------------|
|-----7p=5p0-10-----7---------|--------------7p5p=3--------------|
|-0-0-------------------------|--3-3-----------------------------|
|-----------------------------|----------------------------------|

Am9
Csus4/F
W
E E
E
E
+H
|----------------------------|--------------------------------|
|-0--------------------------|--------------------------------|
|-5--------------------------|--------------0---(0)-----------|
|-5--------------------------|---------3----------------------|
|-0--------------------------|----3---------------------------|
|----------------------------|--1-----------------------------|
|
| Q
E
E
Q
E E
Q
E
E
E
E
Q
|----------------------------|--------------------------------|
|----------------------------|--------------------------------|
|----------------------------|--------------------------------|
|----------------17----------|-17---------------14----17--14--|
|-------15---17--------15-17-|--------15---17-----------------|
|-------17---19--20----17-19-|-20-----17---19-----------------|
|
| e S S S S E.
E. Q
e S S S S S S S S +E
Q
|----------------------------|-----------------------------3--|
|----------------------------|----------------------5-(5)-----|
|----------------------------|------7p=5p0--------------------|
|-----7p=5p0-10-----7---5----|--------------7p5p=3------------|
|-0-0------------------------|--3-3---------------------------|
|----------------------------|--------------------------------|

Cadd4/D
C7sus4/C#
C#m9
Bmaj7
Q
+E
E +Q
+E E
+Q
+E
E +H
|---------------------------|----------------------------|
|--5----(5)--1-(1)----(1)-4-|-(4)----(4)--4-(4)----------|

10 of 18

11-04-03 10:14 PM

Tablature for Robbie Cormier's Featherbeard

file:///Users/Cormier/Desktop/Featherbeard.html

|--5----(5)--3-(3)----(3)-4-|-(4)----(4)--3-(3)----------|
|--3----(3)--3-(3)----(3)-2-|-(2)----(2)--4-(4)----------|
|--5----(5)--4-(4)----(4)-4-|-(4)----(4)--2-(2)----------|
|---------------------------|----------------------------|
|
| Gtr II
| E E E
E E
E E E
E
E E
E E
E E E
|---------------------------|----------------------------|
|-15-13--------15--13-------|-----16---------------------|
|-------14--12--------14----|--------16--13-11--13-11----|
|-------15-----20--19-15----|-----14-13-----13--14-13-13-|
|-15-17-----17--------------|------------14-----------14-|
|---------------------------|----------------------------|

Cadd4/D
C7sus4/C#
F/A
E/Ab
Q
+E
E +Q
+E E
+Q
+E
E +H
|---------------------------|----------------------------||
|--5----(5)--1-(1)----(1)---|----------------------------||
|--5----(5)--3-(3)----(3)-2-|-(2)----(2)--1-(1)----------||
|--3----(3)--3-(3)----(3)-3-|-(3)----(3)--2-(2)----------||
|--5----(5)--4-(4)----(4)-3-|-(3)----(3)--2-(2)----------||
|-------------------------5-|-(5)----(5)--4-(4)----------||
|
| E E E
E E
E E E
E
E E
E E
E E E
|---------------------------|----------------------------||
|-15-13--------15--13-------|-----10-12------------------||
|-------14--12--------14----|-----10--9--13-16--15-16-15-||
|-------15-----20--19-15----|---------------13--11-13--9-||
|-15-17-----17--------------|----------------------------||
|---------------------------|----------------------------||

Verse
Csus2
Gtr III

Gadd2/A

|-3-|
E E E E E E E E
E E E E S S S E E E
|-----------------------|-----------------------------|
|-----------------------|-----------------------------|
|------7--------7-------|--------4-----4h5p4-----4----|
|---5--------5----------|-----5---------------5-----0-|
|-3-------3--------3----|--0--------0-----------------|
|---------------------0-|-----------------------------|
|
| Gtr I
| q
E E E E E E
E E E E E
E E E
|-----------------------|-----------------------------|
|-----------------------|-------------20-----------20-|
|-----------------17----|-16----17-19--------17-19----|
|-----10--9-14-------14-|----17--------------19-22-21-|
|-7---12-10-15-15-------|-------19-20-22--------------|
|-8------------19-17-19-|-20-22-----------------------|

Csus2
Esus4/A
E
E
E
E E E
E
E
E
E E
+E
+H
|-------------------------------|---------<5>-(<5>)-(<5>)------------|
|------------------5------------|---------<5>-(<5>)-(<5>)------------|
|-----------7---------7---------|-------4----------------------------|

11 of 18

11-04-03 10:14 PM

Tablature for Robbie Cormier's Featherbeard

file:///Users/Cormier/Desktop/Featherbeard.html

|-------5-----------------5-----|------------------------------------|
|---3-----------3-------------7-|---0--------------------------------|
|-------------------------------|------------------------------------|
|
| +E
E
E
E E E
E
E
+E
E E
E
+E
E
Q
|------19--15-------------------|------------------------------------|
|-(20)---------17-13------------|------------------------------------|
|--------------------16--14--17-|-(17)------------------------19-----|
|-(21)-16-(16)----16-16-(16)-17-|-(17)-19-----------------17-(17)----|
|------17-(17)----17-17-(17)-17-|-(17)----17---19---(19)--17-(17)----|
|-------------------------------|------------------------------------|
+E
E +Q
E E +E
E
+W

|-3--|
E E E E E E E E
E E E E
S S S E
E E
|----------------------|---------------------------------|
|----------------------|---------------------------------|
|-------7-------7------|---------4------4h=5p4------4----|
|-----5-------5--------|------5-----------------5------0-|
|--3-------3-------3---|---0--------0--------------------|
|--------------------0-|---------------------------------|
|
| Q.
Q.
Q
+Q
E E +E
E +Q
|----------------------|-----------------------12-(12)---|
|-17------15------13---|-(13)---13-12-(12)---------------|
|---------14------14---|-(14)---14-12-(12)---------------|
|----------------------|---------------------------------|
|----------------------|---------------------------------|
|----------------------|---------------------------------|

E E E E E E E E
E E E
+E
+H
|-----------------|-------<5>-(<5>)-(<5>)----|
|---------5-------|-------<5>-(<5>)-(<5>)----|
|-----7-----7-----|-----4--------------------|
|---5---------5---|--------------------------|
|-3-----3-------7-|--0-----------------------|
|-----------------|--------------------------|
|
| W
+W
|-----------------|--------------------------|
|-5---------------|-(5)----------------------|
|-4---------------|-(4)----------------------|
|-5---------------|-(5)----------------------|
|-----------------|--------------------------|
|-----------------|--------------------------|

Cadd2
7/4

Gmaj7sus2C

E5/A

Em

|-3-|
E E E E E E
Q.
Q.
Q
E E E E S S S E
Q.
Q.
Q
|-----------------------------|--------------------------------------|
|-----------------------------|--------------------------------------|
|-----7------7-------------7--|-------4----4h5p4-----4---------------|
|---5------5----------5-------|-----5------------5--------4----------|
|-3------3-------5------------|--0-------0---------------------------|
|-----------------------------|----------------------------------0---|
|

12 of 18

11-04-03 10:14 PM

Tablature for Robbie Cormier's Featherbeard

file:///Users/Cormier/Desktop/Featherbeard.html

| E E Q.
S S Q.
Q.
Q
E E Q.
S S Q.
E E E E E
|-----0-----------------------|--------------------------------------|
|---3-------------------------|--------------------------------------|
|-0--------------2----4----5--|--4--5-4--------------0---------------|
|-2--------------4---------2--|-(2)------------------2----4--5-4-----|
|-3-------------------2----3--|--0---------------0-3-2-----------5-2-|
|------------0-1-3------------|----------------------0---------------|
H.
W

Cadd2

E5/Ab G#m7

Cadd2
E5/Ab
N.C.
4/4
E E E E E E E E H.
E E E E E E E E
E E E E E
E E E
|--------------------------------|--------------------|------------------------||
|--------------------------------|--------------------|------------------------||
|-----7-------7-4p3--------------|------7-------7-----|---6-7-6----------------||
|---5------5--------/6-----------|----5------5----6-7-|---------7-6---7-6------||
|-3-----7------------------------|-3------7-----------|-------------------7----||
|--------------------------------|--------------------|------------------------||
|
|
|-3-|
| E E Q
+E E Q
+E E Q Q Q
E E Q
+E E Q
a E E E E S S E E E
|-----0---(0)-----------------2--|------0---(0)-------|------------------------||
|---3-------------------------0--|----3---------------|-3h5-3------------------||
|-0-------------4---(4)-------1--|-0--------------4---|-------4-2-1-2-1--------||
|-2-----------5-2---(2)-----4----|-2------------0-2---|-----------------2------||
|-3-----------7---------2---2----|-3------------0-----|-------------------2----||
|---------------4---(4)---4------|----------------4---|---0--------------------||
H.
Q
W

Pre-Chorus
Em/G
F#
Q.
E E E Q
+W
|-----------------------|---------------|
|------------^2---------|-(2)-----------|
|------------^3---------|-(3)-----------|
|----------2-^4---------|-(4)-----------|
|-5----2-4--------------|---------------|
|-----------------------|---------------|
|
| H.
S S
E
+Q.
Q.
Q
|-------------0-(0)-(0)-|-(0)---0----0--|
|-------------2--3---0--|-(0)---3----2--|
|-0-----------0--2------|-------2----4--|
|-2---------------------|---------------|
|-2---------------------|---------------|
|-3---------------------|---------------|

Gmaj11/F
D5/G
Q
E
E
+E
E
+E
E
+E
E E E E E E E
|-----<7>-----------<7>-(<7>)-----|---------------------||
|---------<7>-(<7>)-----------<7>-|-(<7>)---------------||
|---------------------------------|---------------------||
|-^5------------------------------|-------7-7-7-7-7-7-7-||
|-^3------------------------------|-------5-5-5-5-5-5-5-||
|-^1------------------------------|-------3-3-3-3-3-3-3-||
|
| W
+E
E E E E E E E

13 of 18

11-04-03 10:14 PM

Tablature for Robbie Cormier's Featherbeard

file:///Users/Cormier/Desktop/Featherbeard.html

|---------------------------------|---------------------||
|--7------------------------------|--(7)----5---7---8-7-||
|--4------------------------------|--(4)--4---7---9-----||
|--5------------------------------|--(5)----------------||
|---------------------------------|---------------------||
|---------------------------------|---------------------||

Chorus
Am
E7sus2
A5/D
E7
Gtr I
W
W
Q
Q
Q
E E
|-8-------------------|-10----------------|-15----14--------------|
|---------------------|--7----------------|-17----15----15--------|
|-2-------------------|-------------------|-------12-14-16--12-11-|
|-2-------------------|--2----------------|-12-14-----------14-12-|
|-0-------------------|--2----------------|-----------------------|
|---------------------|--0----------------|-----------------------|
|
E E E E Q
E E
|
| Gtr III
| E E E E E E a E e
+E E E E E E E E
E E q
H
|-----0---5-7-(7)s2-3-|-(3)-------0-------|-----------------------|
|---0---0-------------|-----0-------3-----|--------3----^3--------|
|-2-------------------|-------5-------4---|-----0--2----^2--------|
|---------------------|---------5-------5-|--4-----4----^0--------|
|---------------------|-------------------|-----------------------|
|---------------------|-------------------|-----------------------|

Amadd2
Emadd2
Esus4/AA
W
W
H
H
|----------------------|-------------------|-------------------|
|--0-------------------|--7----------------|-3-------2---------|
|--9-------------------|--4----------------|-4-----------------|
|-10-------------------|--5----------------|-4-----------------|
|--0-------------------|--7----------------|-5-----------------|
|----------------------|-------------------|-------------------|
|
| E E E E E E a E e
+E E E E E E E E
E E q
Q E E
|------0---5-7-(7)s2-3-|-(3)-------0-------|-------------------|
|----0---0-------------|-----0-------3-----|-----3--^2--3-2----|
|--2-------------------|-------5-------4---|---0-2--^2---------|
|----------------------|---------5-------5-|-4---4--^2---------|
|----------------------|-------------------|--------^0---------|
|----------------------|-------------------|-------------------|

Gadd2
E7sus2
A5/D
E7
W
W
Q
Q
Q
E E
|-7-------------------|-10----------------|-15----14--------------|
|-8-------------------|--7----------------|-17----15----15--------|
|---------------------|-------------------|-------12-14-16--12-11-|
|-7-------------------|--2----------------|-12-14-----------14-12-|
|-5-------------------|--2----------------|-----------------------|
|-3-------------------|--0----------------|-----------------------|
|
E E E E Q
E E
|
| E E E E E E a E e
+E E E E E E E E
E E q
H
|-----3---5-7-(7)s2-3-|-(3)-------0-------|-----------------------|

14 of 18

11-04-03 10:14 PM

Tablature for Robbie Cormier's Featherbeard

file:///Users/Cormier/Desktop/Featherbeard.html

|---3---3-------------|-----3-------3-----|--------3----^3--------|
|-0-------------------|-------4-------4---|-----0--2----^2--------|
|---------------------|---------5-------5-|--4-----4----^0--------|
|---------------------|-------------------|-----------------------|
|---------------------|-------------------|-----------------------|

Amadd2
Emadd2
Esus4/A
G
Am
W
W
H.
E
E
|----------------------|-------------------|---------------7----8----|
|--0-------------------|--7----------------|-3-------------8---10----|
|--9-------------------|--4----------------|-4------------------2----|
|-10-------------------|--5----------------|-4------------------2----|
|--0-------------------|--7----------------|-5------------------0----|
|----------------------|-------------------|-------------------------|
|
| E E E E E E a E e
+E E E E E E E E
E E q
Q
Q
|------0---5-7-(7)s2-3-|-(3)-------0-------|-------------(<5>)-------|
|----0---0-------------|-----0-------3-----|------3--^3--(<5>)-------|
|--2-------------------|-------5-------4---|----0-2--^2--------------|
|----------------------|---------5-------5-|-4----4--^0--------------|
|----------------------|-------------------|-------------------------|
|----------------------|-------------------|-------------------------|

Out-Chorus
Am
E7sus2
A5/D
E7
+W
W
Q
Q
Q
E E
|-(8)-------------------|-10----------------|-15----14--------------|
|-----------------------|--7----------------|-17----15----15--------|
|-(2)-------------------|-------------------|-------12-14-16--12-11-|
|-(2)-------------------|--2----------------|-12-14-----------14-12-|
|-(0)-------------------|--2----------------|-----------------------|
|-----------------------|--0----------------|-----------------------|
|
E E E E Q
E E
|
| E E E E E E a E e
+E E E E E E E E
E E q
H
|-------0---5-7-(7)s2-3-|-(3)-------0-------|-----------------------|
|-----0---0-------------|-----0-------3-----|--------3----^3--------|
|--2--------------------|-------5-------4---|-----0--2----^2--------|
|-----------------------|---------5-------5-|--4-----4----^0--------|
|-----------------------|-------------------|-----------------------|
|-----------------------|-------------------|-----------------------|
|
| Gtr IV
| q
q
q
q
q
q
q
q
q
q
q
q
|--8----5---7-------7---|--7----5---5---7---|--8----10----15--14----|
|--8----7---8-------8---|--8----7---7---8---|--8----10----17--15----|
|-----------------------|-------------------|-----------------------|
|-----------------------|-------------------|-----------------------|
|-----------------------|-------------------|-----------------------|
|-----------------------|-------------------|-----------------------|

Amadd2
Emadd2
Esus4/A A
W
W
H
H
|----------------------|-------------------|---------------------|
|--0-------------------|--7----------------|-3--------2----------|
|--9-------------------|--4----------------|-4-------------------|
|-10-------------------|--5----------------|-4-------------------|

15 of 18

11-04-03 10:14 PM

Tablature for Robbie Cormier's Featherbeard

file:///Users/Cormier/Desktop/Featherbeard.html

|--0-------------------|--7----------------|-5-------------------|
|----------------------|-------------------|---------------------|
|
| E E E E E E a E e
+E E E E E E E E
E E q
Q
E E
|------0---5-7-(7)s2-3-|-(3)-------0-------|---------------------|
|----0---0-------------|-----0-------3-----|------3--^2---3-2----|
|--2-------------------|-------5-------4---|---0--2--^2----------|
|----------------------|---------5-------5-|-4----4--^2----------|
|----------------------|-------------------|---------^0----------|
|----------------------|-------------------|---------------------|
|
| q
q
q
q
q
q
q
q
q
q
q
q
|--8---5---7-------7---|--7----5---5---7---|-8---10--15--14------|
|--8---7---8-------8---|--8----7---7---8---|-8---10--17--15------|
|----------------------|-------------------|---------------------|
|----------------------|-------------------|---------------------|
|----------------------|-------------------|---------------------|
|----------------------|-------------------|---------------------|

Gadd2
E7sus2
A5/D
E7
W
W
Q
Q
Q
E E
|-7-------------------|-10----------------|-15----14--------------|
|-8-------------------|--7----------------|-17----15----15--------|
|---------------------|-------------------|-------12-14-16--12-11-|
|-7-------------------|--2----------------|-12-14-----------14-12-|
|-5-------------------|--2----------------|-----------------------|
|-3-------------------|--0----------------|-----------------------|
|
E E E E Q
E E
|
| E E E E E E a E e
+E E E E E E E E
E E q
H
|-----3---5-7-(7)s2-3-|-(3)-------0-------|-----------------------|
|---3---3-------------|-----3-------3-----|--------3----^3--------|
|-0-------------------|-------4-------4---|-----0--2----^2--------|
|---------------------|---------5-------5-|--4-----4----^0--------|
|---------------------|-------------------|-----------------------|
|---------------------|-------------------|-----------------------|
|
| q
q
q
q
q
q
q
q
q
q
q
q
|-8---5---7-------7---|--7----5---5---7---|--8----10----15--14----|
|-8---7---8-------8---|--8----7---7---8---|--8----10----17--15----|
|---------------------|-------------------|-----------------------|
|---------------------|-------------------|-----------------------|
|---------------------|-------------------|-----------------------|
|---------------------|-------------------|-----------------------|

H.=H
Q=70
Amadd2
Emadd2
Esus4/A
W
W
W
+W
|----------------------|-------------------|--------------|----------*|
|--0-------------------|--7----------------|-3------------|-(3)------*|
|--9-------------------|--4----------------|-4------------|-(4)------*|
|-10-------------------|--5----------------|-4------------|-(4)------*|
|--0-------------------|--7----------------|-5------------|-(5)------*|
|----------------------|-------------------|--------------|----------*|
|
| E E E E E E a E e
+E E E E E E E E
E E H.
+W
|------0---5-7-(7)s2-3-|-(3)-------0-------|-----^0-------|-(0)------*|
|----0---0-------------|-----0-------3-----|-----^3-------|-(3)------*|

16 of 18

11-04-03 10:14 PM

Tablature for Robbie Cormier's Featherbeard

file:///Users/Cormier/Desktop/Featherbeard.html

|--2-------------------|-------5-------4---|---0-^2-------|-(2)------*|
|----------------------|---------5-------5-|-4---^0-------|-(0)------*|
|----------------------|-------------------|--------------|----------*|
|----------------------|-------------------|--------------|----------*|
|
| q
q
q
q
q
q
q
q
W
W
|--8---5---7-------7---|--7----5---5---7---|--------------|----------*|
|--8---7---8-------8---|--8----7---7---8---|--------------|----------*|
|----------------------|-------------------|--------------|----------*|
|----------------------|-------------------|--------------|----------*|
|----------------------|-------------------|--------------|----------*|
|----------------------|-------------------|--------------|----------*|

Duration Legend
--------------W - whole; H - half; Q - quarter; E - 8th; S - 16th; T - 32nd; X - 64th; a - acciaccatura
+ - note tied to previous; . - note dotted; .. - note double dotted
Uncapitalized letters represent notes that are staccato (1/2 duration)
Irregular groupings are notated above the duration line
Duration letters will always appear directly above the note/fret number it represents the
duration for. Duration letters with no fret number below them represent rests. Multibar rests are notated in the form Wxn, where n is the number of bars to rest for. Low
melody durations appear below the staff
Tablature Legend
---------------h
- hammer-on
p
- pull-off
b
- bend
pb - pre-bend
r
- bend release (if no number after the r, then release immediately)
/\ - slide into or out of (from/to "nowhere")
s
- legato slide
S
- shift slide
<n> - natural harmonic
[n] - artificial harmonic
n(n) - tapped harmonic
~
- vibrato
tr - trill
T
- tap
TP - trem. picking
PM - palm muting
\n/ - tremolo bar dip; n = amount to dip
\n - tremolo bar down
n/ - tremolo bar up
/n\ - tremolo bar inverted dip
=
- hold bend; also acts as connecting device for hammers/pulls
<> - volume swell (louder/softer)
x
- on rhythm slash represents muted slash
o
- on rhythm slash represents single note slash
Misc Legend
----------| - bar
|| - double bar
||o - repeat start
o|| - repeat end
*| - double bar (ending)
: - bar (freetime)
$ - Segno
& - Coda

17 of 18

11-04-03 10:14 PM

Tablature for Robbie Cormier's Featherbeard

file:///Users/Cormier/Desktop/Featherbeard.html

Tempo markers - <E/E./Q/Q./H/H.> = BPM(8/16=s8/s16), where s8 = swing 8ths, s16 = swing 16ths

** Generated using Power Tab Editor by Brad Larsen: The Official Power Tab Web Site

18 of 18

11-04-03 10:14 PM