Song: Carry on my Wayward Son

Artist: Kansas
Album: Leftoverture

G|----------------------------------|---------------------------------|
D|------------------------5---------|---------------------------------| x 2
A|--------3--------5--5\7---7-5-3---|--5-------5----------------------|
E|--5-3-5----5-3-5------------------|-----3-3-----2-2-----------------|

G|----------------------------------|---------------------------------|
D|--------------------5-------------|--------7-5---------5------------| x 2
A|--------7-7-----5-7---7-5---------|----------------5-7---7-5--------|
E|--0-0---------7-------------------|--0-0---------7------------------|

G|----------------------------------|---------------------------------|
D|------------------------5---------|---------------------------------| x 2
A|--------3--------5--5\7---7-5-3---|--5-------5----------------------|
E|--5-3-5----5-3-5------------------|-----3-3-----2-2-----------------|

G|----------------------------------|---------------------------------|
D|--------------------5-------------|--------7-5---------5------------|
A|--------7-7-----5-7---7-5---------|----------------5-7---7-5--------|
E|--0-0---------7-------------------|--0-0---------7------------------|

G|----------------------------------|
D|----------------------------------|
A|----------------------------------|
E|--5-5-5--3-3-3--0-----------------|

3.Verse 1 [1. G|----------------------------------|---------------------------------| D|------------0--2-3----------------|---------------------------------| A|--0--2-3--3-----------------------|---------------------5-----------| E|----------------------------------|------------------------3--------| |2.25] G|--0-2--0--------------------------|---------------------------------| D|----------3-----------------------|--0------------0-----------------| A|------------3----0----------------|-----3--1--1-3----3--------0-2---| E|--------------3-----3--1--3-3-----|---------------------3---3-------| Chorus x 3 | 1. G|----------------------------------| D|----------------------------------| A|--3-------------------------------| E|----------------------------------| G|----------------------------------|---------------------------------| D|------------------------5---------|---------------------------------| x 2 A|--------3--------5--5\7---7-5-3---|--5-------5----------------------| E|--5-3-5----5-3-5------------------|-----3-3-----2-2-----------------| Verse 2 G||---------------------------------|---------------------------------| D||o--------------------------------|---------0--0-----------------0--| A||o-0--0----------------0--0-------|--------------3--3-1--1-1--3-----| E||------3--3-1--1-3--3------3--3-1-|--1-3--3-------------------------| .

|1. G|---------------------------------||---------------------------------| D|--0-----------------------------o||---------------------------------| A|----3--3-------0-2--------------o||---------------------------------| E|---------3---3-------------------||--3---0-3------------------------| To chorus G|----------------------------------|---------------------------------| D|----7-5---------------------------|----7-5--------------------------| x 2 A|--------7-5-0-3-5--------5--3-----|--------7-5-0-3-5--------5-------| E|--5----------------3--5-----------|--5----------------3--5----------| G|----------------------------------|---------------------------------| D|-----------------------5----------|---------------------------------| A|--7--5--------------5-----7-------|--7--5-------5-------0--2--------| E|--------8--7--5--3----------------|--------8--7---2--3--------------| To Riff A Then to Riff B G|----------------------------------|---------------------------------| D|------------------------5---------|---------------------------------| x 2 A|--------3--------5--5\7---7-5-3---|--5-------5----------------------| E|--5-3-5----5-3-5------------------|-----3-3-----2-2-----------------| G|----------------------------------|---------------------------------| D|-------------------023------------|-------------------023-----------| A|--0-0------0---023----------------|--0-0------3---023---------------| E|--------3-------------------------|--------3------------------------| G|----------------------------------| D|--0-------------------------------| To Chorus A|----3--1--1-0-3-0-5--3------------| E|------------------------3---------| . |2.

G|----------------------------------|---------------------------------| D|--------5-5---------5-------------|--------7-5---------5------------| x 2 A|----------------5-7---7-5---------|----------------5-7---7-5--------| E|--0-0---------7-------------------|--0-0---------7------------------| G|----------------------------------|---------------------------------| D|----------------------------------|--7--7---------------------------| x 3 A|--9-9-9-9-7---9-9-9-9-7-----------|----------7--7-------------------| E|------------9-----------9---------|---------------------------------| G|----------------------------------|---------------------------------| D|---------------------------7--7---|--------5-5---------5------------| A|--9-9-9-9-7---9-9-9-9-7-----------|----------------5-7---7-5--------| E|------------9-----------9---------|--0-0---------7------------------| G|----------------------------------|---------------------------------| D|--------7-5---------5-------------|--------5-5---------5------------| A|----------------5-7---7-5---------|----------------5-7---7-5--------| E|--0-0---------7-------------------|--0-0---------7------------------| G|----------------------------------| D|--------7-5---------5-------------| A|----------------5-7---7-5---------| E|--0-0---------7-------------------| G|----------------------------------|---------------------------------| D|----------------------------------|--7--7---------------------------| x 4 A|--9-9-9-9-7---9-9-9-9-7-----------|----------7--7-------------------| E|------------9-----------9---------|---------------------------------| G|----------------------------------| D|----------------------------------| A|----------------------------------| E|--5-5-5--3-3-3--0-----------------| .

Sign up to vote on this title
UsefulNot useful