P. 1
pnbach_1

pnbach_1

|Views: 14|Likes:
Published by Jonny Salvador

More info:

Published by: Jonny Salvador on Oct 10, 2011
Copyright:Attribution Non-commercial

Availability:

Read on Scribd mobile: iPhone, iPad and Android.
download as TXT, PDF, TXT or read online from Scribd
See more
See less

10/11/2013

pdf

text

original

Bachianinha No 1 - Paulinho Nogueira (1929-2003

)
1st version - by Diego Nocrato
2nd version - by Gabriel Lopes, unfinished
******************************************************************************
Title: Bachianinha Nº 1
Artist: Paulinho Nogueira
"Essa é uma grande música brasileira e espero que vocês curtam"
"This is great Brazilian music and I hope you enjoy it"
E||-----0-----0--|-----0-----0--|-----0--0--0--|-----0--------|-----0--0--0--|
B||--5-----3-----|--1-----0-----|--0-----------|--3-----1--0--|--1-----------|
G||--5-----4-----|--2-----2-----|--1-----------|--4-----2-----|--2-----------|
D||--------------|--------------|--------------|--------------|--------------|
A||--------------|--------------|--------------|--------------|--------------|
E||--------------|--------------|--------------|--------------|--------------|
--0--0--0--0--|-----0-----0--|-----0-----0--|-----0--0--0--|-----0--------|
--------------|--5-----3-----|--1-----0-----|--0-----------|--3-----1--0--|
--------------|--5-----4-----|--2-----2-----|--1-----------|--4-----2-----|
--------------|--------------|--------------|--------------|--------------|
--------------|--------------|--------------|--------------|--------------|
--------------|--------------|--------------|--------------|--------------|
-----0--0--0--|-----0--0--0--|-----0--0--0--|-----0--0--0--|-----0--0--0--|
--1-----------|--1-----------|--0-----------|--0-----------|--0-----------|
--2-----------|--2-----------|--2-----------|--2-----------|--1-----------|
--------------|--------------|--------------|--------------|--------------|
--------------|--------------|--------------|--------------|--------------|
--------------|--------------|--------------|--------------|--------------|
--0--0--0--0--|--8-----------|--------------|--------5-----|--7-----8-----|
--------------|--------5-----|--------5--8--|--6--------6--|-----5-----5--|
--------------|-----5-----5--|-----5--------|-----5--------|--------------|
--------------|--------------|--------------|--------------|--------------|
--------------|--0-----------|--0-----------|--0-----------|--0-----------|
--------------|--------------|--------------|--------------|--------------|
--7-----8-----|--10-------------|--12-------------|--------8--12--|
--------------|----------8------|-----------------|-----8---------|
-----7-----7--|------10-----10--|----------9------|--9------------|
--5-----------|--9--------------|------10-----10--|---------------|
--------------|-----------------|-----------------|---------------|
--------------|-----------------|--8--------------|--8------------|
--10------------|-----7--10--7--|--8-----------|-----5--7--8--|--7-----------|
----------------|--9------------|--------5-----|--------------|--------6-----|
---------7--10--|---------------|-----5-----5--|--------------|-----7-----7--|
------9---------|---------------|--------------|--7-----------|--0-----------|
----------------|--7------------|--0-----------|--0-----------|--------------|
--7-------------|---------------|--------------|--------------|--------------|
--------5-----|--5-----4-----|--4-----------|--7-----------|--------5-----|
--------------|--------------|--------3-----|--------6-----|--------------|
-----5-----5--|-----4-----4--|-----4-----4--|-----7-----7--|-----5-----5--|
--------------|--2-----------|--2-----------|--0-----------|--------------|
--6-----------|--------------|--------------|--------------|--6-----------|
--------------|--------------|--------------|--------------|--------------|
--5-----4-----|--------------|--------3-----|--3-----5-----|--3-----1--0--|
--------------|--------3-----|--------------|--------------|--------------|
-----4-----4--|-----4-----4--|-----2-----2--|-----2-----2--|-----2--------|
--2-----------|--0-----------|--------------|--2-----------|--0-----------|
--------------|--------------|--4-----------|--------------|--------------|
--------------|--------------|--------------|--------------|--------------|
--1-----------|--------5-----|--5-----7-----|--5-----4-----|--5-----7-----|
--------3-----|--------------|--------------|--------------|--------------|
-----2-----2--|-----4-----4--|-----4-----4--|-----4-----4--|-----5-----7--|
--0-----------|--------------|--4-----------|--2-----------|--3-----6-----|
--------------|--6-----------|--------------|--------------|--------------|
--------------|--------------|--------------|--------------|--------------|
--8-----7-----|--5-----7-----|--5-----------|--1-----0-----|--------------|
--------------|--------------|--------8-----|-----------3--|--1-----------|
-----5-----5--|-----5-----5--|-----7-----7--|-----2--------|--------2-----|
--7-----------|--------------|--0-----------|--------------|-----2-----2--|
--------------|--3-----------|--------------|--2-----------|--------------|
--------------|--------------|--------------|--------------|--0-----------|
--------------||------------0--|--3-----------|--0------------|--0-----------|
--0-----------||---------1-----|--------3-----|--------1------|--------0-----|
--------1-----||*-----2--------|-----0-----0--|-----0---------|--------------|
-----2-----2--||*--------------|--------------|---------------|-----2-----2--|
--------------||---0-----------|--2-----------|--3--------2-0-|--------------|
--0-----------||---------------|--------------|---------------|--4-----------|
--------------|--------------|--------------|---------------||-----0--0--0--|
--1-----------|--3-----------|--0-----1--3--|--1-----0------||--------------|
--------2-----|--------2-----|--------------|--------------*||--2-----------|
-----2-----2--|-----3-----3--|-----3--------|-----0-----0--*||--------------|
--0-----------|--2-----------|--------------|---------------||--0-----------|
--------------|--------------|--1-----------|--0------------||--------------|
|------0--0--0--|-----0--0--0--|-----0--0--0--|-----0--0--0--|-----0--0--0--|
|---1-----------|--1-----------|--1-----------|--1-----------|--0-----------|
|*--4-----------|--2-----------|--4-----------|--2-----------|--2-----------|
|*--------------|--------------|--------------|--------------|--------------|
|---------------|--------------|--------------|--------------|--------------|
|---------------|--------------|--------------|--------------|--------------|
-----0-----0--|-----0--0--0--|-----0--0--0---||-----0--0--0--|-----0--0--0--|
--0-----0-----|--0-----------|--0------------||--------------|--------------|
--1-----------|--1-----------|--1-----------*||--2-----------|--4-----------|
--------4-----|--------------|--------------*||--3-----------|--3-----------|
--------------|--------------|---------------||--------------|--------------|
--------------|--------------|---------------||--------------|--------------|
-----0--0--0--|-----0-----0--|-----0--0--0--|-----0--0--0--|-----0--0--0--|
--------------|--------------|--------------|--------------|--------------|
--5-----------|--4-----2-----|--2-----------|--1-----------|--2-----------|
--3-----------|--3-----3-----|--2-----------|--2-----------|--3-----------|
--------------|--------------|--------------|--------------|--------------|
--------------|--------------|--------------|--------------|--------------|
-----0-----0--|-----0--0--0--|-----0--0--0--|-----0--0--0--|-----0--0--0--|
--------------|--------------|--------------|--------------|--------------|
--4-----2-----|--2-----------|--1-----------|--1-----------|--1-----------|
--3-----3-----|--2-----------|--2-----------|--2-----------|--2-----------|
--------------|--------------|--------------|--------------|--------------|
--------------|--------------|--------------|--------------|--------------|
-----0--0--0--|-----0--0--0--|-----0--0--0--|-----0--0--0--|-----0--0--0--|
--------------|--------------|--------------|--------------|--------------|
--1-----------|--1-----------|--1-----------|--1-----------|--4-----------|
--0-----------|--0-----------|--0-----------|--0-----------|--------------|
--------------|--------------|--------------|--------------|--3-----------|
--------------|--------------|--------------|--------------|--------------|
-----0--0--0--|-----0--0--0--|-----0--0--0--|-----0--0--0--|--0----0--0--|
--------------|--------------|--------------|--------------|-------------|
--2-----------|--4-----------|--2-----------|--2-----------|-------------|
--------------|--------------|--------------|--------------|-------------|
--3-----------|--3-----------|--3-----------|--2-----------|-------------|
--------------|--------------|--------------|--------------|-------------|
-----0--0--0--|--0----0--0--|----------|--------------|--------------|
--------------|-------------|----------|--------1-----|--------3-----|
--1-----------|-------------|----------|-----2-----2--|-----1-----1--|
--------------|-------------|----------|--2-----------|--2-----------|
--------------|-------------|----------|--0-----------|--0-----------|
--0-----------|-------------|----------|--------------|--------------|
--------------|--------------|-------------|------------|-----------||
--------1-----|--------3-----|--1----0-----|------------|-----------||
-----2-----2--|-----1-----1--|--2-------2--|--2----1----|--2--------||
--2-----------|--2-----------|--2----------|--2---------|--2--------||
--0-----------|--0-----------|--0----------|--2---------|--4--------||
--------------|--------------|-------------|--0---------|--5--------||
******************************************************************************
******************************************************************************
Music : "Bachianinha Nº 1"
Autor : Paulinho Nogueira (b.1929)
Transcribed By : Gabriel Lopes (Manjar)
Questions : Manjar_@uol.com.br
PS: A part of the song is missing because i dont know to play it, but to play
it right repeat the song 2 times, and at the second, play really slow...
This is one of the most beautiful pieces of music for the acoustic guitar,
i don't know the time signature, i just know how to play it, and i love to
play it - whoever plays this song will fall in love with their guitar..
Acorde instrumento : E A D G B E - Ritmo (Rhythm): ?
| | | |
|------0---0---0---0---0-0-0---0-------0-0-0-0-0-|
|----5---3---1---0---0-------3---1-0-1-----------|
|----5---4---2---2---1-------4---2-2-2-----------|
|------------------------------------------------|
|------------------------------------------------|
|------------------------------------------------|
| | | |
|0-0---0---0---0---0---0-0---0-------0-0-0---0-0-|
|----5---3---1---0---0-----3---1-0-1-------1-----|
|----5---4---2---2---1-----4---2-2-2-------2-----|
|------------------------------------------------|
|------------------------------------------------|
|------------------------------------------------|
| | | |
|0---0-0-0---0-0-0---0-0-0---0-0-0---0-0-0-0-0-0-|
|--1-------0-------0-------0-------0-------------|
|--2-------2-------2-------1-------1-------------|
|------------------------------------------------|
|------------------------------------------------|
|------------------------------------------------|
| | | |
|0-0-0-0-0-0-0-0-8-------------------5---7---8---|
|--------------------5-------5-8-6---------------|
|------------------5---5---5-------5---5---5---5-|
|------------------------------------------------|
|----------------0-------0-------0-------0-------|
|------------------------------------------------|
| | | |
|7---8---10------12----------8-1210--------7-107-|
|------------8-------------8-----------6-9-------|
|--7---7---10--10----9---9-----------7-----------|
|5-------9---------10--10----------9-------------|
|----------------------------------------7-------|
|----------------8-------8-------7---------------|
| | | |
|8---------5-7-8-7-----------5---5---4-----------|
|----5---------------6-----------------------3---|
|--5---5-----------7---7---5---5---4---4---4---4-|
|--------7-------0---------------2-------2-------|
|0-----------------------6-----------------------|
|--------5---------------------------------------|
| | | |
|7-------5-------5---4---------------3---3---5---|
|----5-------9---------------3-------------------|
|--7---7---5---5---4---4---4---4---2---2---2---2-|
|0---------------2-------0---------------2-------|
|--------5-----------------------4---------------|
|------------------------------------------------|
| | | |
|3---1-0-1-----------5---5---7---5---4---5-------|
|------------3-----------------------------------|
|--2-------2---2---4---4---4---4---4---4---4---7-|
|0-------0---------------4-------2-------3---6---|
|----------------6-------------------------------|
|------------------------------------------------|
| | | |
|8---7-------7---5-------1---0-------------------|
|--------10----------8---------3-1-------0-------|
|--5---5-----------7---7---2---------2-------1---|
|7---------10--100-----------------2---2---2---2-|
|------------------------2-----------------------|
|--------8-----------------------0-------0-------|
| | | |
|------0-3-------0---------0---------------------|
|----1-------3-------1---------------------------|
|--2-------0---0---0-----------0-----------------|
|----------------------------2---2---------------|
|0-------2-------3-----2-0-----------------------|
|--------------------------3---------------------|
******************************************************************************
******************************************************************************

---------7--10-------9-------------------------7------------- ------------------------------7-------------------------- -----5-----5----------------0------------------------ ---------------7------------0------------------------ -----7-----7---0------------------------------------- --------5----------------------5-----5----------------6------------------------ --5-----4----------------------4-----4---2------------------------------------- --4------------------3---------4-----4---2------------------------------------- --7------------------6---------7-----7---0------------------------------------- --------5----------------------5-----5----------------6------------------------ --5-----4----------------------4-----4---2------------------------------------- ---------------------3---------4-----4---0------------------------------------- --------3----------------------2-----2----------------4------------------------ --3-----5----------------------2-----2---2------------------------------------- --3-----1--0-------------------2---------0------------------------------------- --1------------------3---------2-----2---0------------------------------------- --------5----------------------4-----4----------------6------------------------ --5-----7----------------------4-----4---4------------------------------------- --5-----4----------------------4-----4---2------------------------------------- --5-----7----------------------5-----7---3-----6------------------------------- --8-----7----------------------5-----5---7------------------------------------- --5-----7----------------------5-----5----------------3------------------------ --5------------------8---------7-----7---0------------------------------------- --1-----0---------------3------2----------------------2------------------------ ---------------1------------------2---------2-----2----------------0----------- ---------------0------------------1---------2-----2----------------0----------- ------------0----------1----*-----2-------*----------------0------------------------- --3------------------3---------0-----0----------------2------------------------ --0-------------------1----------0------------------------3--------2-0--------------- --0------------------0----------------------2-----2----------------4----------- ---------------1------------------2---------2-----2---0------------------------ ---------------3------------------2---------3-----3---2------------------------ ---------------0-----1--3-------------------3----------------------1----------- ----------------1-----0-------------------* -----0-----0--* ----------------0------------ -----0--0--0----------------2-------------------------0------------------------ .

You're Reading a Free Preview

Download
scribd
/*********** DO NOT ALTER ANYTHING BELOW THIS LINE ! ************/ var s_code=s.t();if(s_code)document.write(s_code)//-->