You are on page 1of 2

diary of a madman tab by randy rhoads, www.ultimate-guitar.

com

tune down half a step...... i think!


hey,this is the very first time i have done tabs!
so,as you can see,it's not perfect!but i'm only 15 years old... and have been
playing guitar
for 1 year!...i'll have the rest of the song up in a couple of days!
enjoy!!!
this is the intro to diary of a madman!

e:--------------------0--------------|-----------------
0-------------|----------------5------------|------------------5---------|
b:----------------4------4----------|--------------4-----4----------|-------------
4----4---------|---------------3-----3--------|
g:-------------6------------6-------|-----------6-----------6-------|----------
5----------5------|-----------4------------4-----|
d:----------7-----------------7-----|--------5----------------5-----|-------
4---------------4----|--------3------------------3--|
a:------0---------------------------|-----0-------------------------|-----
0-----------------------|-----0-----------------------|
e:-----------------------------------|--------------------------------|-----------
------------------|---------------------------|

e:-----------------0---------------|---------------------
0------------|------------------------------0-----------------|
b:--------------2----2------------|------------------1-----
1---------|---------------1-------------------1-------------|
g:-----------4---------4----------|--------------4------------4------|----------
4---------4------------------4---------|
d:--------2---------------2-------|----------2-------------------
2---|----------------------------------------------2--|
a:----0---------------------------|------
0----------------------------|------------------------------------------------|
e:---------------------------------|------------------------------------|----
3-----------------------------------------|

e:------------------------------
0---------------|-------------------------------------------------------|---------
----------0----------|
b:---------------3-----------------
3-----------|-------------------------------------------------------|-----
0--------0--------0----3--|
g:----------2--------2-----------------2-------|-----------------------------
1-----------1------------|----------1---------------------|
d:-----------------------------------------0----|--------------4-------
4-----------4------------------|--------------------------------|
a:----------------------------------------------|----------2-------
2-----------------------------------|-------------------------------|
e:-----1-----------------------------------------|----
0-------------------------------------------------|------------------------------|

this is the second part!

e:------------------------------------------------------------------------|-------
---------------------------------------------|
b:------------------------------------------------------------------------|-------
---------------------------------------------|
g:-------5-----4-------------2------4------5------4--------2----------|-----------
5-----4-----2-----4-----5-----4--------------|
d:----------2-----2------2------2------2------2-------2--------2-----|--------
2-----2-----2-----2-----2-----2------------------|
a:---0----------------0-------------------------------------------------|----
0-------------------------------------------------|
e:------------------------------------------------------------------------|-------
------------------------------------------0--|

e:-----------------------------------------------------------------------|--------
---------------------------------------------|
b:------------------------------------------------------------------------|-------
---------------------------------------------|
g:-------5-----4-------------2------4------5------4--------2----------|-----------
5-----4-----2-----4-----5-----4--------------|
d:----------2-----2------2------2------2------2-------2--------2-----|--------
2-----2-----2-----2-----2-----2------------------|
a:---0----------------0-------------------------------------------------|----
0-------------------------------------------------|
e:------------------------------------------------------------------------|-------
------------------------------------------0--|

this is where the electric guitar kick's in!!!

e:------------------------------------------------------------------------|-------
---------------------------------------------|
b:------------------------------------------------------------------------|-------
---------------------------------------------|
g:-------5-----4-------------2------4------5------4--------2----------|-----------
5-----4-----2-----4-----5-----4--------------|
d:----------2-----2------2------2------2------2-------2--------2-----|--------
2-----2-----2-----2-----2-----2------------------|
a:---0----------------0-------------------------------------------------|----
0-------------------------------------------------|
e:------------------------------------------------------------------------|-------
------------------------------------------0--|

e:-----------------------------------------------------------------------|--------
---------------------------|
b:------------------------------------------------------------------------|-------
---------------------------|
g:-------5-----4-------------2------4------5------4--------2----------|-----------
5-----4-----2-----4-----5--|
d:----------2-----2------2------2------2------2-------2--------2-----|--------
2-----2-----2-----2-----2------|
a:---0----------------0-------------------------------------------------|----
0-------------------------------|
e:------------------------------------------------------------------------|-------
---------------------------|

e5 f5 f#5 c5 b5
e:---------------------------|-----------------------------------|
b:---------------------------|-----------------------------------|
g:--4-----------------------|----------------5-----------4-------|
d:--2----------------3------|---4-----------5-----------4--------|
a:--2----------------3------|---4-----------3-----------2--------|
e:--0-----------------1------|---2-----------3-----------2-------|