P. 1
Microsoft Word - Rush Songbook

Microsoft Word - Rush Songbook

|Views: 274|Likes:
Published by api-3701732

More info:

Published by: api-3701732 on Oct 16, 2008
Copyright:Attribution Non-commercial

Availability:

Read on Scribd mobile: iPhone, iPad and Android.
download as PDF, TXT or read online from Scribd
See more
See less

03/18/2014

pdf

text

original

Indice

2112_discovery.tab
2112_grand_finale.tab
2112_oracle_the_dream.tab
2112_overture.tab
2112_presentation.tab
2112_soliloquy.tab

2112_temples_of_syrinx.tab
a_farewell_to_kings.tab
afterimage.tab
analog_kid.tab
animate.tab
anthem.tab
bastille_day.tab
before_and_after.tab
between_the_wheels.tab
big_money.tab
broons_bane.tab
by-
tor_and_the_snow_dog.tab
chemistry.tab
cinderella_man.tab
closer_to_the_heart.tab
cold_fire.tab
cut_to_the_chase.tab
cygnus_x-1.tab
different_strings.tab

distant_early_warning.crd

distant_early_warning.tab
double_agent.tab
dreamline.tab
driven.tab
emotion_detector.crd
entre_nous.tab
finding_my_way.tab
fly_by_night.tab
freewill.tab
ghost_of_a_chance.tab
hemispheres.tab
hemispheres_apollo.tab

madrigal.tab
making_memories.tab
marathon.tab
middletown_dreams.tab
natural_science.tab
need_some_love.tab
nobodys_hero.tab
panacea.tab
passage_to_bangkok.tab
presto.tab
prime_mover.tab
red_barchetta.tab
red_lenses.tab
red_sector_a.tab
rivendell.tab
roll_the_bones.tab
show_dont_tell.tab
soliloquy.crd
spirit_of_radio.tab
subdivisions.tab
superconductor.tab
take_a_friend.tab
tears.tab
the_body_electric.tab
the_camera_eye.tab
the_enemy_within.tab
the_fountain_of_lamneth_bacchus_plateau.tab

the_fountain_of_lamneth_didacts_and_narpets.tab
the_fountain_of_lamneth_in_the_valley.tab
the_fountain_of_lamneth_no_one_at_the_bridge.tab
the_fountain_of_lamneth_panacea.tab
the_fountain_of_lamneth_the_fountain.tab
the_necromancer_into_darkness.tab
the_necromancer_return_of_the_prince.tab
the_necromancer_under_the_shadow.tab
the_pass.tab
the_trees.tab
the_weapon.tab
time_stand_still.tab
tom_sawyer.tab
virtuality.tab
vital_signs.tab
hemispheres_armageddon.tab
hemispheres_cygnus.tab

hemispheres_dionysus.tab
hemispheres_prelude.tab

hemispheres_the_sphere.tab
here_again.tab
highwater.tab
in_the_end.tab
in_the_mood.tab
jacobs_ladder.tab
kid_gloves.tab
la_villa_strangiato.tab
lakeside_park.tab

leave_that_thing_alone.tab
lessons.tab

limelight.tab
losing_it.tab
war_paint.tab
what_youre_doing.tab
wheres_my_thing.tab
working_man.tab
xanadu.tab
yyz.tab




























Rush - III Discovery (6:44 - 10:15)

[Riff 1] - Freely C(addD)
G/D D G6/B \/ A7
e:-7----7---7\-2----2---2-|----0---0--0--0------0~-------------|
B:-8-----8--8\-3------3-3-|-3--3---5\-3--2--------2--2--2------|
G:-7--7-----7\-2--2-----2-|-0--0---0--0--0---0-------0--0------|
D:-0--------0--0--------0-|-0------0--0--2-----------2--2------|
A:------------------------|-2------3\-2--0-----------0--0------|
E:------------------------|------------------------------------|

[Riff 2] - Gradual increase in volume and speed
G/D C/D A/D D C/D
e:-7--8-8--9---9---10--12\------------------------------------|
B:-8--8-8--10--10--10--13\------------------------------------|
G:-7--9-9--9---9---11--12\------------------------------------|
D:-0--0-0--0---0---0---0--------------------------------------|
A:------------------------------------------------------------|
E:------------------------------------------------------------|

[Riff 3a] Gsus2 [Riff 3b]
|
D C Csus2 Dsus2| G
e:--2--0-----2--0.--5-7--5-|-2--7--0--2-----7--5--------------|
B:--3--1--3--3--3.--8-8--8-|-3--8--3--3--3.-8--8--------------|
G:--2--0--5--2--2.--7-7--7-|-2--7--2--2--5.-7--7--------------|
D:--------5----------------|-------------5.-------------------|
A:-------------------------|----------------------------------|
E:-------------------------|----------------------------------|

[Riff 3c]

e:--2--7--0--2------0-0---------|
B:--3--8--3--3--3.--3-3---------|
G:--2--7--2--2--5.--2-2---------|
D:--------------5.--------------|
A:------------------------------|
E:------------------------------|

[Riff 4] - Freely
A D E
e:--------------------------------------------------------------------
|
B:-----2----2h3--2----3p3-----7--7h8--7---9~---9--9h10--9-------------
|
G:----------2---------2-------7--7----7---9~---9--9-----9-------------
|
D:-------2--2h4----2--4p2-----7--7h9--7---9~---9--9h11--9-------------
|
A:--0~----------------0----0--------------0-----------------0---------
|
E:--------------------------------------------------------------------
|


Progression:

[Free time]:

e:-------------0~----------------------------------------------------|
B:-----------0~------------------------------------------------------|
G:---------0~-------------0~-----------------------------------------|
D:-------0~--------------------------------0~---------------0~-------|
A:-----0~------------0~---------------0~---------------0~------------|
E:-0~----------------------------------------------------------------|

e:-------------------------------------------------------------------|
B:-------------------------------------------------------------------|
G:--------2~-------2~~-----------------------------------------------|
D:-----0-----------------------0------<7>~~~~~------------0.-----0.--|
A:--0----------0------------0-----<7>-------------------0~------0~---|
E:----------------------------------------------------0~-------0~----|

e:-------------------------------------------------------------------|
B:---------------------------------------------------------3~--------|
G:-----------------------------------------2~------------2-----------|
D:--------------------------0~--------0----------------0-------------|
A:----<7>~-----0~-------0--------------------------------------------|
E:<5>-------0--------------------------------------------------------|

e:---------0~-------3-5--2-------------------------------------------|
B:-----3-------------------3----3-----3~--------3--5~----------------|
G:-0h2---2-------------------2----2---2~--------4--5~----------------|
D:------------------------------------0~--------0--0~----------------|
A:-------------------------------------------------------------------|
E:-------------------------------------------------------------------|

e:--------------------------------------------------|----------------|
B:-7~------3---3~~---------<7>~---------------------|----------------|
G:-7~------0---2~~-------------<7>~---------<12>~---|----------------|
D:-0~------0---0~~------------------<12>~-----------|----------------|
A:--------------------------------------<12>~-------|----------------|
E:--------------------------------------------------|----------------|

e:----------------|----------------|---7~-----------|----7~----------|
B:--3--5--3-------|----------------|--8~------------|---8~-----------|
G:--2--5--2-------|-----<5>~~------|----------------|--7~------------|
D:--0--0--0-------|----------------|----------------|---------0~-----|
A:----------------|----------------|----------------|----------------|
E:----------------|----------------|----------------|----------------|


[Riff 1] x2

[Riff 1] x2 w/ lyrics:

What can this strange device be? When I ....
[Riff 2] x4

[Riff 3a] x2

[Riff 3a] x1 /w lyrics:

See how it sings like ...

[Riff 3b] x1 /w lyrics:

joyously screams ....

[Riff 3c] x1 /w lyrics:

Sounds that ....

D C9 G C9 G A7
e:--2---------------------------------------------------------------|
B:--3------5s3---3~------------5~s3---3~----2~----------------------|
G:--2------0-----0~---0--0--0--0~-----0~----0~----------------------|
D:--0------0-----0~---0--0--0--0~-----0~----2~----------------------|
A:---------3s2---2~---2--2--2--3~s2---2~----0~----------------------|
E:------------------------------------------------------------------|
Or notes that fall ge....

e:-------------------------------------------------------------------|
B:-------------------------------------------------------------------|
G:--0--0--0--0--0--0--0--0--0--0--0--0--0--0--0--0--0--0--0--0-------|
D:--12-12-12-12s9--9--9--9s-11-11-11-11s7--7--7--7s-9--9--9--9s------|
A:--0--0--0--0--0--0--0--0--0--0--0--0--0--0--0--0--0--0--0--0-------|
E:-------------------------------------------------------------------|
rain...
e:-------------------------------------------------------------------|
B:-------------------------------------------------------------------|
G:--0--0--0--0--0--0--0--0--0--0--0--0--0--0--0--0--0--0--0--0-------|
D:--5--5--5--5s-7--7--7--7s-4--4--4--4s-5--5--5--5s-2--2--2--2s------|
A:--0--0--0--0--0--0--0--0--0--0--0--0--0--0--0--0--0--0--0--0-------|
E:-------------------------------------------------------------------|

e:-------------------------------------------------------------------|
B:-------------------------------------------------------------------|
G:--0--0--0--0--0--0--0--0--0--0--0--0--0--0--0--0-------------------|
D:--7--7--7--7s-4--4--4--4s-5--5--5--5--0--0--0--0-------------------|
A:--0--0--0--0--0--0--0--0--0--0--0--0--0--0--0--0-------------------|
E:-------------------------------------------------------------------|

[Riff 4] x2

[Riff 4] x4 w/ lyrics:

I can't wait to share this ....
























Rush - VII Grand Finale (18:19 - 20:32)

[Riff 1] - Freely (is there phaser here too?)
E5 D A5
e:------------------------------------------------------------|
B:----------------------8--7----------------------------------|
G:--9---9-9-9-9-9-9-----7--7-------7--------------------------|
D:--9---9-9-9-9-9-9-----7--7---7---7--------------------------|
A:--7---7-7-7-7-7-7-----5--5---7---5--------------------------|
E:--0---0-0-0-0-0-0------------5------------------------------|

[Riff 2]
E5 Esus2 Dsus2 Csus2
e:-0--0--0--0--0--0--0--0----------------------------7~--5~--3~-|
B:-0--0--0--0--0--0--0--0---7--7--7--7--7--7--7--7---7~--5~--3~-|
G:-9--9--9--9--9--9--9--9---7--7--7--7--7--7--7--7---9~--7~--5~-|
D:-9--9--9--9--9--9--9--9---7--7--7--7--7--7--7--7---9~--7~--5~-|
A:-7--7--7--7--7--7--7--7---5--5--5--5--5--5--5--5---7~--5~--3~-|
E:-0--0--0--0--0--0--0--0---------------------------------------|

[Riff 3] - Freely
B E D C
e:---------------------|-7--7-7-7--5--5-5-5--3-3-3-3-3-3---|
B:---------------------|-7--7-7-7--5--5-5-5--3-3-3-3-3-3---|
G:o-------------------o|-9--9-9-9--7--7-7-7--5-5-5-5-5-5---|
D:o--4---4---4----4---o|-9--9-9-9--7--7-7-7--5-5-5-5-5-5---|
A:---2-0-2-0-2--0-2----|-7--7-7-7--5--5-5-5--3-3-3-3-3-3---|
E:---------------------|-----------------------------------|

Progression:

[Riff 1] x12

[Riff 2] x1

Over [Riff 3] x8:
[Guitar Solo] with partially depressed wah-wah

B
e:------------------|------------------|------------------|
B:------------------|------------------|------------------|
G:------------------|------------------|------------------|
D:--4---4---4----4--|--4---4---4----4--|--4---4---4----4--|
A:--2-0-2-0-2--0-2--|--2-0-2-0-2--0-2--|--2-0-2-0-2--0-2--|
E:------------------|------------------|------------------|

F#5 G5 A5 B5 C5 D5 E5 G5 F#5 G5 A5 B5 B5
e:-----------------------------------------|------------------|
B:-----------------------------------------|------------------|
G:--------------5--7--9--12\---------------|-----------4--5--7|
D:--4--5--7--9--5--7--9--12\----4--5--7--9-|--4--5--7--4--5--7|
A:--4--5--7--9--3--5--7--10\----4--5--7--9-|--4--5--7--2--3--5|
E:--2--3--5--7------------------2--3--5--7-|--2--3--5---------|

F#m
e:------------------|---2---2----2--2------|
B:------------------|---2---2----2--2------|
G:-----------4--5--7|o--2---2----2--2-----o|
D:--4--5--7--4--5--7|o--4---4----4--4-----o|
A:--4--5--7--2--3--5|---4---4----4--4------|
E:--2--3--5---------|---2---2----2--2------|
+ o o o +


Use pick slides, wah-wah, tremolo bar dives, and feedback.

Repeat: Attention all planets of .....

We have assumed ....










































Rush - V Oracle: The Dream (13:56 - 16:00)

[Riff 1]
D C D F A
e:-------5~---5------3-3--2-2------3-3--5-5------3-3--0-0------------|
B:-----7--------7----5----3---3----5----6---6----5----2---2----------|
G:---7------------7--5----2-----2--5----5-----5--5----2-----2--------|
D:-7--------------------------------------------------2--------------|
A:----------------------------------------------------0--------------|
E:-------------------------------------------------------------------|

Thereafter Riff 1 goes like this:

e:--7-7--5-5----3-3--2-2----3-3--5-5---3-3--0--0---------|
B:--8----7--7---5----3--3---5----6--6--5----2---2--------|
G:--7----7---7--5----2---2--5----5---5-5----2----2-------|
D:------------------------------------------2------------|
A:------------------------------------------0------------|
E:-------------------------------------------------------|

[Riff 2] - Doubled by an acoustic guitar
G D C G D Dsus4 D C F C D A D A
e:-3--2--0--3--2~-3--2~----0--1--0--2--------------------|
B:-3--3--1--3--3~-3--3~----1--1--1--3---2~-3--2~---------|
G:-0--2--0--0--2~-2--2~----0--2--0--2---2~-2--2~---------|
D:-0--0--2--0--0~-0--0~----2--3--2--0---2~-4--2~---------|
A:-2-----3--2--------------3--3--3------0~-0--0~---------|
E:-3--------3-----------------1--------------------------|

** These are both doubled by an acoustic guitar
[Riff 3] D/C# [Riff 3a]
Bm G A D5 | A5 Bm C D A
e:--2~--3~-----------------|--0--2-----------------------|
B:--3~--3~--2~--3--3-------|--1--3--2--------------------|
G:--4~--0~--2~--2--2--2--4-|--0--2--2--------------------|
D:--4~--0~--2~--0--x--2--4-|--2--0--2--------------------|
A:--2~--2~--0~-----4--0--2-|--3-----0--------------------|
E:------3~-----------------|-----------------------------|


Progression:

[Riff 1] x2

[Riff 1] x2 /w lyrics:

I wandered home through silent streets....

[Riff 2] x2 /w lyrics:

I stand atop a spiral stair; an oracle ....

[Riff 3] x2 /w lyrics:

I see the work of gifted hands that ...

[Riff 3a] x1
[Riff 2] x1

[Riff 2] x2 /w lyrics:

They left our planets long ago. The ....

Segue:
Bm G E5/D E5
e:-2~------------------3~-------------0.-----0~----|
B:-3~------------------3~-------------0.-----0~----|
G:-4~------------------0~-------------x------x-----|
D:-4~------------------0~-------------0.-----2~----|
A:-2~------------------2~--------------------2~----|
E:---------------------3~--------------------0~----|
home to tear the Temples ....


Rush - I Overture (0:00 - 4:33)

[Intro]

E Am C9 G D
e:---------3--3--2~---3.---------|--------------------3-----2--3-----
2-|
B:----1.---3--3--3~---3.---1-1-1.|----1.--3-3.----1---3--3--3--3--3--
3-|
G:-1--2.---x--0--2~---0.---2-2-2.|-1--2.--x-0.-1--2.--x--0--2--x--0--
2-|
D:-2--2.---2--0--0~---2.---2-2-2.|-2--2.--2-0.-2--2.--2--0--0--2--0--
0-|
A:-2--0.---3--2-------3.---0-0-0.|-2--0.--3-2.-2--0.--3--2-----3--2---
-|
E:-0----------3------------------|-0--------3.-0---------3--------3---
-|

e:----------3---------------3--3--2~-|
B:-----1.---3--3.------1.---3--3--3~-|
G:--1--2.---x--0.---1--2.---x--0--2~-|
D:--2--2.---2--0.---2--2.---2--0--0~-|
A:--2--0.---3--2.---2--0.---3--2-----|
E:--0----------3.---0----------3-----|
| | |
here, ....
(with delayed repeats ~400 ms)

e:---------3--------------3--2.---3-----2--3-----2-----|
B:----1.---3--3.------1.--3--3.---3--3--3--3--3--3-----|
G:-1--2.---x--0.---1--2.--0--2.---x--0--2--x--0--2-----|
D:-2--2.---2--0.---2--2.--0--0.---2--0--0--2--0--0---0-|
A:-2--0.---3--2.---2--0.--2-------3--2-----3--2--------|
E:-0----------3----0------3----------3--------3--------|
| | |
here, here, ....

These chords are played by an acoustic and another electric:

G D C G D Dsus4 D C F C D A D A
e:-15--14--12--15------------|-----------------------|
B:-----------------15~-------|-13----13-15-----------|
G:--------------------14-----|----12-------14~-------|
D:-----------------------12~-|----------------14-----|
A:---------------------------|-------------------12~-|
E:---------------------------|-----------------------|

[Riff 1]
A5 B5 A5 G5 D5 D/C# A5
e:-----|-------------------------------------------------------------|
B:-----|-------------------------------------------------------------|
G:-----|------------------------------------------2------------------|
D:-----|-4--4-4-4-4-4-4-4-4-4---5-5-5-5-5-5-5-5-5-0----2--2-2-2-2-2--|
A:--7\-|-2--2-2-2-2-2-2-2-2-2-0-5-5-5-5-5-5-5-5-5---4--0--0-0-0-0-0--|
E:--5\-|------------------------3-3-3-3-3-3-3-3-3--------------------|

E5 D5 D/C# B5 D5
e:----------------|--------------------------------------------|
B:----------------|--------------------------------------------|
G:-4--4-4-2-------|--------------7\----------------------------|
D:-2--2-2-0----4--|-4-4-4-4-4-4--7\----------------------------|
A:----------4--2--|-2-2-2-2-2-2--5\----------------------------|
E:----------------|--------------------------------------------|

[Riff 2]
A Bm/A D Amaj7
e:--------------------------------------------------------|
B:---------------------2--3--3---7~--5--5\--2--3--3--7--7-|
G:---------------------2--4--4---7~--6--6\--2--4--4--7--7-|
D:---------------------2--4--4---7~--6--6\--2--4--4--7--7-|
A:------------0--------0--0--0-------0--0---0--0--0-------|
E:---0--2--3----3--0--------------------------------------|
(with phaser)

[Riff 3] - these chords are doubled by an acoustic and another
electric
B Bm G A5 D D/C# A Bm
e:---------------------------------|-2~---3~-------------------|
B:-------------------7--7-7--7-7~--|-3~---3~--------3--3-----3-|
G:-------------------8--8-8--8-8~--|-4~---4~--------2--2--2--4-|
D:-------------------9--9-9--9-9~--|-4~---5~---7~---0--x--2--4-|
A:----------0--------9--9-9--9-9~--|-2~---5~---7~------4--0--2-|
E:-0--2--3----3--0---7--7-7--7-7~--|------3~---5~--------------|

[Riff 4]
Bm
e:--------------(2)---|--------------------------|--2----------------|
B:--------------(3)---|--------------------------|--3----------------|
G:o-------------(4)--o|----------------7------9\-|--4----------------|
D:o-------------(4)--o|----------------7--7---9\-|--4----------------|
A:--------0-----(2)---|--------0-------5--7---7\-|--2----------------|
E:--0-2-3---3-0--2----|--0-2-3---3-2~--5--5---7\-|-------------------|

[Riff 5]
A5 G F5
e:------------------------------------------------------------------|
B:----------------------------------------------------------3--3--3-|
G:-2-2-2-2-2-2-2-----------------------2~--2-2-2-2-2-2-2-2--x--0--x-|
D:-2-2-2-2-2-2-2-----------------------3~--3-3-3-3-3-3-3-3--2--0--2-|
A:-0-0-0-0-0-0-0-----0-0-0-0-0-0-0-----3~--3-3-3-3-3-3-3-3--3--2--3-|
E:----------------0--3-3-3-3-3-3-3--0--1~--1-1-1-1-1-1-1-1-----3----|

[Riff 6]
F
e:----------------------------------------------------------|
B:-----------------------------5----------------------------|
G:-2-2-2-2-2-2-2-2-2-2-2-2-2---5----------------------------|
D:-3-3-3-3-3-3-3-3-3-3-3-3-3---5----------------------------|
A:-3-3-3-3-3-3-3-3-3-3-3-3-3---3----------------------------|
E:-1-1-1-1-1-1-1-1-1-1-1-1-1--------------------------------|

[Riff 7] - Doubled by an acoustic guitar (and two other electrics)
Bm D5 Bm G5
e:-------------------------------------------------------|
B:-3-3-3-3-3-3-3-------3-3-3-3-3-3-3---------------------|
G:-4-4-4-4-4-4-4---7---4-4-4-4-4-4-4---------------------|
D:-4-4-4-4-4-4-4---7---4-4-4-4-4-4-4---5-----------------|
A:-2-2-2-2-2-2-2---5---2-2-2-2-2-2-2---5-----------------|
E:-------------------------------------3-----------------|

[Riff 8] - Doubled by an acoustic guitar
Esus2 Dsus2 Csus2
e:--7--7-7-7-7-7---5--5-5-5-5-5---3-3-3-3-3-3-3---------------------|
B:--7--7-7-7-7-7---5--5-5-5-5-5---3-3-3-3-3-3-3---------------------|
G:--9--9-9-9-9-9---7--7-7-7-7-7---5-5-5-5-5-5-5---------------------|
D:--9--9-9-9-9-9---7--7-7-7-7-7---5-5-5-5-5-5-5---------------------|
A:--7--7-7-7-7-7---5--5-5-5-5-5---3-3-3-3-3-3-3---------------------|
E:------------------------------------------------------------------|

Progression:

[Free time]

[Intro] x1

[Riff 1] x3

First half of [Riff 1] x1

[Riff 2] x4

[Riff 3] x1

Last half of [Riff 3] x1

[Riff 4] x2, last time without final Bm

[Riff 5] x1

[Guitar Solo] (trill; 0tr2 = 0h2p0h2p0h2p0 etc)
\/
e:-----------------------------------------------------------------5-
7---|
B:-8---------0------------------------------------5-7-8b10~--8b10-----
---|
G:-7b9r7b9~----0~-0tr2~--------------------5-6--7---------------------
---|
D:-----------------------3~----------5-6-7----------------------------
---|
A:----------------------------5--6-7----------------------------------
---|
E:--------------------------------------------------------------------
---|

e:-8b10~~(10)~~(10)~~r8~---5h8p5--------------------------------------
----|
B:-------------------------------8-8b10~---10b12~~(12)~--10b12~~--
10b13~~-|
G:--------------------------------------------------------------------
----|
D:--------------------------------------------------------------------
----|
A:--------------------------------------------------------------------
----|
E:--------------------------------------------------------------------
----|

e:--------------------------------------------------------------|
B:-10b12~~(12)~~--10b13--10b13r10--8h10p8-----------------------|
G:----------------------------------------9--5h7p5---7b9-5~~~---|
D:-------------------------------------------------7------------|
A:--------------------------------------------------------------|
E:--------------------------------------------------------------|

e:-------------------------------------------------------------------|
B:-------------------------------------------------------------------|
G:-------[5]-----[7]-[5]---------------------------------------------|
D:-5--7------[7]---------[7]~~----7p5---7--5s3~~~~-------------------|
A:------------------------------------7------------------------------|
E:-------------------------------------------------------------------|

This riff is played 3 1/2 times under the guitar solo:

Am7 C/G F C5 G5 C5
e:--------0------------0---|----------1-----------------------|
B:----------1------------1-|------------1---------------------|
G:-----0------0------0-----|------2-----------5------5--------|
D:-2-2-------------2-------|----3-------------5---5--5--------|
A:-0-----------------------|-3----------------3---5--3--------|
E:--------------3----------|-1--------------------3-----------|

[Riff 6] x1

[Riff 7] x2

[Riff 7] x2 along with this line played by yet another electric and
acoustic guitar, two times:

Bm D Bm G
e:-------7-7-7-7-7----5--------------7-7-7-7-7----3------------------|
B:-------7-7-7-7-7-x--7---x-x--------7-7-7-7-7-x--3---x-x------------|
G:-------7-7-7-7-7-x--7---x-x--------7-7-7-7-7-x--4---x-x------------|
D:--/9-------------x--7---x-x---/9-------------x--5---x-x------------|
A:--/9-------------x--5---x-x---/9-------------x--5---x-x------------|
E:--/7--------------------------/7----------------3------------------|

[Riff 8] x1

[Riff 7] x1

[Riff 8] x1

[Riff 7] x2

Play over [Riff 7] x2: (This is the 1812 Overture FYI)

e:------------------------|------------------------|------------------
----|
B:--------4-------4-------|-------4-------4--------|-------4-------4--
----|
G:o---4-6---6-4-6---4-4~-o|---4-6---6-4-6---4-4~---|---4-6---6-4-6---
4-[4]|
D:o-4--------------------o|-4----------------------|-4----------------
----|
A:------------------------|------------------------|------------------
----|
E:------------------------|------------------------|------------------
----|

|-------2---------2----------------------|
|-3--3--3---3--3--3---3------------------|
|-x--0--2---x--0--2---0---1--1--1--1--1~-|
|-2--0--0---2--0--0---0---2--2--2--2--2~-|
|-3--2------3--2------2---2--2--2--2--2~-|
|----3---------3------3---0--0--0--0--0~-|

With phaser:

C Dadd4 C G/B Am
|-----------3~-----------------------0~-----|
|-------------1~--1-----3------------1~-----|
|---------0---------------0---0---0--2~-----|
|-------2-------2-----4--------------2~-----|
|-0-2-3-------------5-------3---2----0~-----|
|-------------------------------------------|
And the meek shall ....




Rush - IV Presentation (10:16 - 13:55)

[Riff 1] - Freely
A D
e:------------5--5~---5-5-----------------------------------|
B:------------5--5~---5-5---7-7~-8--7--7--7.-8-----7~--7----|
G:------6-6~--6--6~---6-6---7-7~-7--7--7--7.-7-----7~--7----|
D:--7~--7-7~--7--7~---7-7---7-7~-7--7--7--7.-7--7--7~--7----|
A:--7~--7-7~--7--7~---7-7---5-5~-5--5--5--5.-5--5--5~--5----|
E:--5~--5-5~--5--5~---5-5-----------------------5-----------|

[Riff 2a] - Doubled by an acoustic guitar (electric is flanged)

A Bm/A D Amaj7 Bm/A E Bm A
e:-----------------|-----------------------------------------|
B:-2--3-3--7--5-5\-|--2--3-3---9--3--2-----------------------|
G:-2--4-4--7--6-6\-|--2--4-4---9--4--2-----------------------|
D:-2--4-4--7--6-6\-|--2--4-4---9--4--2-----------------------|
A:-0--0-0-----0-0--|--0--0-0---------0-----------------------|
E:-----------------|-----------------------------------------|

[Riff 2b] - Doubled by an acoustic guitar (electric is flanged)

A Bm/A D Amaj7 Bm/A E A
e:-----------------|-----------------------------------------|
B:-2--3-3--7--5-5\-|--2--3-3---9--14--14\--------------------|
G:-2--4-4--7--6-6\-|--2--4-4---9--14--14\--------------------|
D:-2--4-4--7--6-6\-|--2--4-4---9--14--14\--------------------|
A:-0--0-0-----0-0--|--0--0-0---------------------------------|
E:-----------------|-----------------------------------------|

[Riff 3] - Doubled by an acoustic guitar
A D E
e:--------------------------------------------------------------|
B:-2--2---2-2-3p2-------7--7h8--7----9--9--9h10--9--------------|
G:-2--------------2-----7--7----7----9--9--9-----9--------------|
D:-2----2---------------7--7h9--7----9--9--9h11--9--------------|
A:-0------------------------------------------------------------|
E:--------------------------------------------------------------|

[Riff 4]
Bm G A B
e:----------------------2-2-----3-3-----5-5-----|
B:----------------------3-3-----3-3-----5-5-----|
G:-------------------4--4-4-----4-4-----6-6-----|
D:-------------------4-------5-------7----------|
A:----------0--------2-------5-------7----------|
E:-0--2--3-----3--0----------3-------5-------7\-|

[Riff 5]
D5
e:----------------------|
B:------------------3~--|
G:------------------2~--|
D:------------------0~--|
A:-----------0----------|
E:--0--2--3-----3-0-----|

Progression:


[Riff 1] x2

[Riff 2a] x1 /w lyrics:

I know it's most unusual, to ....

[Riff 2b] x1 /w lyrics:

But I've found an ancient ....

[Riff 3] x4 /w lyrics:

Listen to my music....

[Riff 1] x4 /w lyrics:

Yes we know, it's nothing new. ....

[Riff 2a] x1 /w lyrics:

I can't believe you're saying,....

[Riff 2b] x1 /w lyrics:

Our world could use such beauty....

[Riff 3] x4 /w lyrics:

Listen to my music...

[Riff 1] x4 /w lyrics:

Don't annoy us further, oh, we ha....

[Riff 4] x8 under [Guitar Solo] /w wah-wah and in the key of D
[Riff 5] x1



Rush - VI Soliloquy (16:01 - 18:18)

** There appears to be phaser throughout this part (except for the
guitar
doing the soloing)

[Riff 1]
D C G/B Dm/F Em7 D
e:-----2----------------------------------------------2-----|
B:-------3~----------------------------3--------------3-----|
G:---2------2~-0------0-----0--------2------0---------2-----|
D:-0----------------2-----0---0----3-----2~----0h3p0--0-----|
A:----------------3-----2~----------------------------------|
E:----------------------------------------------------------|

After the first time it goes like this:

D C G/B Dm/F Em7 D
e:-2---------------------------------------------------2----|
B:---3--------3-----------------------3----------------3----|
G:-----2----2---0-----0-----0-------2-------0----------2----|
D:-------0~---------2-----0---0---3------2~-----0h3p0--0----|
A:----------------3-----2~----------------------------------|
E:----------------------------------------------------------|

[Riff 2]
Am7 C/G F C5 G5
e:--------0-----------0-------------1------------------------|
B:----------1-----------1-------------1---1------------------|
G:-----0------0-----0------------2------2--------5-----------|
D:-2-2------------2------------3------------3~---5---5-------|
A:-0------------------------3--------------------3---5-------|
E:--------------3-----------1------------------------3-------|

[Riff 3]
Am7 C/G E5
e:-------0-----------0-----------------------------------------|
B:---------1-----------1---------------------------------------|
G:-----0-----0-----0------2--2-2-2-2-2-2-2-2-2-2-2-2-2-2-------|
D:-2-2-----------2--------3--3-3-3-3-3-3-3-3-3-3-3-3-3-3--2~---|
A:-0----------------------3--3-3-3-3-3-3-3-3-3-3-3-3-3-3--2~---|
E:-------------3----------1--1-1-1-1-1-1-1-1-1-1-1-1-1-1--0~---|

Progression:

[Riff 1] x2

[Riff 1] x2 /w lyrics:

The sleep is still in my eyes, ....

[Riff 2] x3 /w lyrics:

I wish that it might come to pass, not ....

[Guitar Solo] in C over [Riff 2] x5:

(I marked the parts which I am unsure of with an asterisk [*])

e:-------------------------------------------------------------------|
B:-------------------------------------------------------------------|
G:-------------------------------------------------------------------|
D:-----------------------------------3-5--5~~----5h7~~---5h7-7-5-7~~-|
A:---------------------x\--------3-5---------------------------------|
E:--3-3-3-3-3-3-3h5~---x\--5~~---------------------------------------|
*

e:-------------------------------------------------------------------|
B:-------------------------------------------------------------------|
G:------5---5--7b9r7p5---5--7b9~~~r7--7b9--7b9r7--7-7-7-7b9r7--5-5-5-|
D:--7-5---7------------7---------------------------------------------|
A:-------------------------------------------------------------------|
E:-------------------------------------------------------------------|

e:-----------------|-------------------------------------12-15-------|
B:-----------------|------13-15-15b17r15p13----13-15b17--------------|
G:-7-7b9r7-5-------|--/14-------------------14-----------------------|
D:-----------7-5-7-|-------------------------------------------------|
A:-----------------|-------------------------------------------------|
E:-----------------|-------------------------------------------------|

e:-15b17r15b17~~--15b17~-15b17~----17b19~-17b19~~~~--17-17b19-17-----|
B:-------------------------------------------------------------------|
G:-------------------------------------------------------------------|
D:-------------------------------------------------------------------|
A:-------------------------------------------------------------------|
E:-------------------------------------------------------------------|

e:-18b20~~--18b20~--18b20~-18b20~--|---------------------------------|
B:---------------------------------|-------8~----8~------------------|
G:---------------------------------|-------7b9~~~~----7b9--7~--5--[7]|
D:---------------------------------|---------------------------------|
A:---------------------------------|---x\----------------------------|
E:---------------------------------|---x\----------------------------|
+ *

e:---------------------------|
B:---------------------------|
G:------5-7b9-7p5-5----------|
D:--5h7-------------7-5-7~---|
A:---------------------------|
E:---------------------------|

From [17:54] until [18:00] I am still lost :-)

e:-------------------------------------------------------------------|
B:-------------------------------------------------------------------|
G:-----5-5-5-5-----5-5-5------5-7b9r7p5---5-7b9r7-7p5---5-7b9r7p5---5|
D:-5h7---------5h7--------5h7-----------7-------------7-----------7--|
A:-------------------------------------------------------------------|
E:-------------------------------------------------------------------|

e:-------------------------------------------------------------------|
B:-------------------------------------------------------------------|
G:-[7b9]~~~----------------------------------------------------------|
D:-------------------------------------------------------------------|
A:-------------------------------------------------------------------|
E:-------------------------------------------------------------------|

[Riff 3] x1 /w lyrics:

My spirits are low in the depths of ....


Rush - II Temples of Syrinx (4:34 - 6:43)

[Riff 1]
E Am C5 G5 D5
e:------------------------------------------|-------------------------
--|
B:----1-1-1-----1-1-1-----------------------|----1-1-1-----1-1-1------
--|
G:-1--2-2-2--1--2-2-2---5---------5-----7\--|-1--2-2-2--1--2-2-2---5--
--|
D:-2--2-2-2--2--2-2-2---5--5-5-5--5--5--7\--|-2--2-2-2--2--2-2-2---5--
5~|
A:-2--0-0-0--2--0-0-0---3--5-5-5--3--5--5\--|-2--0-0-0--2--0-0-0---3--
5~|
E:-0---------0-------------3-3-3-----3------|-0---------0-------------
3~|

[Riff 2]
Bm G A B
e:----------------------2-2-----3-3-----5-5-----|
B:----------------------3-3-----3-3-----5-5-----|
G:-------------------4--4-4-----4-4-----6-6-----|
D:-------------------4-------5-------7----------|
A:----------0--------2-------5-------7----------|
E:-0--2--3-----3--0-(2)------3-------5-------7\-|

[Riff 3]
D5
e:----------------------|
B:-------------------3--|
G:-------------------2--|
D:-------------------0--|
A:-----------0----------|
E:--0--2--3-----3-------|


Progression:

[Riff 1] x2

[Riff 1] x2 w/ lyrics:

We've taken care of everything, the ....

[Riff 2] x4 w/ lyrics:

We are the priests of the ....

[Riff 3] x1

B D B G5
e:-----------------------------------------------|-----------------|
B:-----------------------------------------------|-----------------|
G:o--4-4-4-4--4--4-4---7---4-4-4-4--4--4-4---4--o|-4-4-4-4-4-4-4-4-|
D:o--4-4-4-4--4--4-4---7---4-4-4-4--4--4-4---5--o|-5-5-5-5-5-5-5-5-|
A:---2-2-2-2--2--2-2---5---2-2-2-2--2--2-2---5---|-5-5-5-5-5-5-5-5-|
E:-------------------------------------------3---|-3-3-3-3-3-3-3-3-|

[Riff 1] x2 w/ lyrics:

Look around this world we've made, ....

[Riff 2] x4 w/ lyrics:

We are the priests of the .....

[Riff 3] x1

Segue:

e:-------------------------------------------|
B:-------------------------------------------|
G:-4-4-4-4--4--4-4---7---4-4-4-4--4--4-4---4-|
D:-4-4-4-4--4--4-4---7---4-4-4-4--4--4-4---5-|
A:-2-2-2-2--2--2-2---5---2-2-2-2--2--2-2---5-|
E:-----------------------------------------3-|

e:-----------------------------------------3~~--------|
B:-----------------------------------------3~~--------|
G:-4-4-4-4--4--4-4---7---4-4-4-4--4--4-4---4~~--------|
D:-4-4-4-4--4--4-4---7---4-4-4-4--4--4-4---5~~--------|
A:-2-2-2-2--2--2-2---5---2-2-2-2--2--2-2---5~~--------|
E:-----------------------------------------3~~--------|

On a nylon-string acoustic:

G F# Bm
e:--3----------2-------------------------------|
B:----3----3------2---2--3~--------------------|
G:------4-----------3----4~--------------------|
D:-----------------------4~--------------------|
A:-----------------------2~--------------------|
E:--3----------2-------------------------------|





















Rush - A Farewell to Kings

From the CD 'A Farewell to Kings'
Written by Lee/Lifeson/Peart
Mercury/Polygram Records 822546-2

This constitutes about 90% of the song. I re-worked the
introduction, but it is still almost the same as the original by David
Sandberg <dts@protected.olga.net>. The entire middle section of the
song is
missing in this tab. It was just too difficult for me to transcribe.
Additional credit goes to Chuck Bruce <cbruce@protected.olga.net> for
figuring
out Riff 1 and Dave Toussaint <bigdave@protected.olga.net> for various
riffs. The intro
is in the key of D, then switches to A. It ends in D after the last
set of
lyrics.

Jimmy Pena - jimmy@protected.olga.net

| = not a standard bar line; just used to separate music
~ = vibrato or held note
h = hammer on
p = pull off
s = slide
b = bend string up to indicated pitch/fret
r = release bend to indicated string/fret
/ = slide up from infinity
\ = slide down into infinity
o \_
o / repeat sign (always look for these!)


[Intro] - Fingerpicked on a nylon stringed acoustic guitar

Bm A5 D E/G# G F#
e:-----------------------------------0-------0----3-----3---2---------
|
B:-3-----------7----------------------------------3-----------2-------
|
G:-----4---2---7-----------------4-4---4------------4-------------3---
|
D:---4-----2---7--------------------------------------5---------4-----
|
A:-2-----4-0---5-4-5-4-7-5--------------------------------------------
|
E:-------------------------7-0-4----------0----0--3---------2---------
|
Bm A5 D E/G# G F#
e:-----------------------------------0-------0----3-----3---2---------
--|
B:-3---3-------7---7---------------0--------------3-----------2-------
--|
G:---------2---7---7-------------4-----4------------4-------------3---
--|
D:-4---4---2---7---7----------------------------------5---------4-----
--|
A:-2---2-4-0---5---5-4-7-5--------------------------------------------
--|
E:-------------------------7-0-4----------0----0--3---------2---------
--|
Bm A5 D E/G#
e:-----------------------------------0--------0-----------------------
|
B:-3---3-------7---7---------------0----------------------------------
|
G:---------2---7---7-------------4-----4------------------------------
|
D:-4---4---2---7---7--------------------------------------------------
|
A:-2---2-4-0---------4-7-5--------------------------------------------
|
E:-------------------------7-0-4----------0------0--------------------
|

D/F# Em/G D/A F#m/A A/E
e:---------------------5-----------5----------------------------------
|
B:-3---3-5---5-7---7---5---------5------------------------------------
|
G:---2---4-4---7---6---6-------6--------------------------------------
|
D:---------------------7-----7----------------------------------------
|
A:---------------------7----------------------------------------------
|
E:-2-----3-----5---5--------------------------------------------------
|

(keyboard and xylophone?/glockenspiel?/chimes? enter)

Em Bm C G F#
e:-------0------------------2----------------0-----3----3---3----2----
----|
B:-0-------0---0-----3--------3---3----1-------1--------------------2-
----|
G:-----0-----0------------4-----4------0---0-----0---0----4---4-------
--3-|
D:---2-----------2---4--4-----------4----2----------------------------
4---|
A:-2-------------2---2--------------2--3-------------3----------------
----|
E:------------------------------------------------------3--------2----
----|
Em Bm C G F#
e:-0-----0-0----------------2----------------0----------3-----3---2---
----|
B:-------------0-----3--------3---3----1-------1---1------------------
----|
G:-----0-----0------------4-----4------0---0-----0--------4-----------
----|
D:---2-----------2---4--4-----------4----2-----------2------5---------
----|
A:-2-----------------2-----------------3------------------------------
----|
E:------------------------------------------------------3---------2---
----|
Bm A5 D E/G# G F#
e:-----------------------------------0--------------3-----3--2--------
|
B:-3--3--------7-------------------0---------------------------2------
|
G:---------2---7-----------------4-----4----4---------4------------3--
|
D:-4--4----2---7----------------------------------------5--------4----
|
A:-2--2--4-0-------5-4-7-5--------------------------------------------
|
E:-------------------------7-0-4----------0----0----3--------2--------
|
Bm A5 D
e:-----------------------------------0--------------------------------
|
B:-3--3--------7-------------------0----------------------------------
|
G:---------2---7-----------------4-----4------4-----------------------
|
D:-4--4----2---7------------------------------------------------------
|
A:-2--2--4-0-------5-4-7-5--------------------------------------------
|
E:-------------------------7-0-4----------0------0--------------------
|

D/F# Em/G D/A F#m/A A/E
e:-------------------|-------------------|---------------------5------
|
B:-3---3-5---5-7---7-|-3---3-5---5-7---7-|-3---3-5---5-7---7---5------
|
G:-2-2---4-4---7---6-|-2-2---4-4---7---6-|-2-2---4-4---7---6---6------
|
D:-------------------|-------------------|---------------------7------
|
A:-------------------|-------------------|---------------------7------
|
E:-2-----3-----5---5-|-2-----3-----5---5-|-2-----3-----5---5----------
|

(Note: in this part, the notes in ()'s are played by a second guitar
which
is doubling the lead part.)

(doubled electric guitars)
A7sus4 A7 Em/G D D/F# G
e:----0---0--0--0---------------------2---0--0---3--3--------------|
B:----3---2--2--0---------------------3---3--3---3--3--------------|
G:----0---0--0--0---------------------2---2--2---0--0--------------|
D:----2---2--2--2---------------------0---0--0---0--0-----0--2--4--|
A:----0---0--0--x-------------------------x--x---2--2--4-----------|
E:--------------3----0--2--3--2--0~-------2--2---3--3--------------|

e:----0---0--0--0-----------------2---0--0---3--3---------------|
B:----3---2--2--0-----------------3---3--3---3--3---------------|
G:----0---0--0--0-----------------2---2--2---0--0---------------|
D:----2---2--2--2----------------(0)--0--0---0--0------0--2--4--|
A:---(0)--0--0--x---------------------x--x---2--2---4-----------|
E:--------------3----0--2--3--2-------2--2---3--3---------------|

e:----0---0--0--0-----------------2---0--0---3--3------------------|
B:----3---2--2--0-----------------3---3--3---3--3------------------|
G:----0---0--0--0-----------------2---2--2---0--0------------------|
D:----2---2--2--2----------------(0)--0--0---0--0------0--2--4-----|
A:---(0)--0--0--x---------------------x--x---2--2---4-----------2~-|
E:--------------3----0--2--3--2-------2--2---3--3------------------|

[Riff 1]
A5 D5 B5
e:-----------------------------------------------------|
B:-----------------------------------------------------|
G:------2-----------------7----------------------------|
D:----2-----------------7----7~s-9--9\-----------------|
A:--0-----------------5------4~s-7--9\-----------------|
E:---------3~-2-0~------------------7\-----------------|

[Riff 2] _________________________________________
A F G |1. E |2. E
e:-5--5--5-----------3--3--3-|----------0~-|-------0-0-0-0-0----------
|
B:-5--5--5-----------3--3--3-|----------0~-|-------0-0-0-0-0----------
|
G:-6--6--6--2--2--2--4--4--4-|----------1~-|-------1-1-1-1-1----------
|
D:-7--7--7--3--3--3--5--5--5-|---2~--2--2~-|---2~--2-2-2-2-2----------
|
A:-7--7--7--3--3--3--5--5--5-|---2~--2--2~-|---2~--2-2-2-2-2----------
|
E:-5--5--5--1--1--1--3--3--3-|---0~--0--0~-|---0~--0-0-0-0-0----------
|

[Riff 3]
F#m G A
e:---2---3---2---3------------5~-------5~---------|
B:---2---3---2---3------------5~-------5~---------|
G:---2---4---2---4------------6~-------6~---------|
D:---4---5---4---5---7--7---7-7~-----7-7~---------|
A:---4---5---4---5---7--7---7-7~-----7-7~---------|
E:---2---3---2---3---5--5---5-5~-----5-5~---------|

[Riff 4]
G (A)
e:--15-15-15-15-15-15----14--15--14----------16b17~~----------|
B:--15-15-15-15-15-15----------------17--14-------------------|
G:--12-12-12-12-12-12-----------------------------------------|
D:--12-12-12-12-12-12-----------------------------------------|
A:------------------------------------------------------------|
E:------------------------------------------------------------|

[Riff 5] - an overdubbed electric plays the notes at the bottom
G D/F# A B G
e:---3~-----------------------3~---------------------|
B:---3~------3~------2---4----3~---------------------|
G:---0~------2~------2---4----0~---------------------|
D:---0~------0~------2---4----0~---------------------|
A:---2~------x~------0---2----2~---------------------|
E:---3~------2~---------------3~---------------------|
| |
e:---------------------------------------------------|
B:--15~~---------------------------------------------|
G:-----------14~~------------------------------------|
D:---------------------------------------------------|
A:---------------------------------------------------|
E:---------------------------------------------------|

[Riff 6]
G (played over A B B G G pattern in last
verse)
e:-15-15-15-15-15-15--14--15--14-------14-14~~-----------------|
B:-15-15-15-15-15-15--------------17~----------15-15~~~--------|
G:-12-12-12-12-12-12-------------------------------------------|
D:-12-12-12-12-12-12-------------------------------------------|
A:-------------------------------------------------------------|
E:-------------------------------------------------------------|

Song Progression:

[Intro] x1

[Riff 1] x2

With [Riff 2] x1:

When they turn the pages of history, when these ....

With [Riff 3] x2:

We turned our gaze from the ....

With [Riff 4] x3:

Cities full of hatred, fear .....

With [Riff 5] x1:

Beating down the multitude and ....

[Riff 1] x2

With [Riff 2] x1:

The hypocrites are slandering the ....

With [Riff 3] x2:

Can't we find the minds that ....

[Guitar Solo and middle section] all skipped here - sorry (someday...)

I did manage to tab out the section from 3:51 on. The chords
in
()'s are played by the first guitar, while another breaks off to
finish the
solo.

A
e:--5-5-5--5--5-5-5--5-5-5--5--5-5-5--5-5-5--5--5-5-5--5-5-5--5--5-5-
5-|
B:--5-5-5--5--5-5-5--5-5-5--5--5-5-5--5-5-5--5--5-5-5--5-5-5--5--5-5-
5-|
G:--2-2-2--2--2-2-2--2-2-2--2--2-2-2--2-2-2--2--2-2-2--2-2-2--2--2-2-
2-|
D:--2-2-2--2--2-2-2--2-2-2--2--2-2-2--2-2-2--2--2-2-2--2-2-2--2--2-2-
2-|
A:--0-0-0--0--0-0-0--0-0-0--0--0-0-0--0-0-0--0--0-0-0--0-0-0--0--0-0-
0-|
E:--------------------------------------------------------------------
-|
G (A)
e:--5-5-5~~---3~~-------------5~~---3~~-------------------------------
|
B:--5-5-5~~---3~~-------------5~~---3~~--------------10~--------------
|
G:--2-2-2~~---0~~---------2p0-2~~---0~~---------2p0--12b14~-----------
|
D:--2-2-2~~---0~~-------0-----2~~---0~~-------0-------------?---------
|
A:--0-0-0~~---2~~-------------0~~---2~~---------------------0*--------
|
E:------------3~~---0h3-------------3~~---0h3-------------------------
|
(G) (A)
e:-------------------------------------------------------------------|
B:-------------------------------------------------------------------|
G:-16b18r16--16b18r16--16-16~-------14--16-14-16-16b18r16p14-16-16---|
D:----------------------------14h16----------------------------------|
A:-------------------------------------------------------------------|
E:-------------------------------------------------------------------|
(G)
e:-------------------------------------------------------------------|
B:-------------------------------------------------------------------|
G:-14~~~~---12b14-12-11-12-11----12p11-------------------------------|
D:----------------------------14-------12~~~-------------------------|
A:-------------------------------------------------------------------|
E:-------------------------------------------------------------------|

With [Riff 4] x3:

Cities full of hatred, fear ......

With [Riff 5] x1:

Beating down the multitude and ...

With [Riff 4] x1:

Can't we raise our eyes ...

With [Riff 6] x1:

Can't we find the minds to lead ..

(Note: as above, the notes in ()'s are played by a second guitar which
is
doubling the lead part.)

D D/F# G A7sus4 A7 Em/G
e:-----------|-2---0--0---3--3-|----------------0---0--0--0-----------
----|
B:-----------|-3---3--3---3--3-|----------------3---2--2--0-----------
----|
G:-----------|-2---2--2---0--0-|----------------0---0--0--0-----------
----|
D:-----------|-0---0--0---0--0-|----0--2--4-----2---2--2--2-----------
----|
A:-----------|-----x--x---2--2-|-4-----------2~-0---0--0--x-----------
----|
E:-0-2-3-2-0-|-----2--2---3--3-|--------------------------3----0--2-3-
2---|

e:--2---0--0---3--3-|-------------0---0--0--0----------------|
B:--3---3--3---3--3-|-------------3---2--2--0----------------|
G:--2---2--2---0--0-|-------------0---0--0--0----------------|
D:-(0)--0--0---0--0-|---0--2--4---2---2--2--2----------------|
A:------x--x---2--2-|-4----------(0)--0--0--x----------------|
E:------2--2---3--3-|-----------------------3----0--2-3-2----|

(switch to acoustic)
D D/F# G Bm
e:--2---0--0---3--3~-------------------------2~----------------------|
B:--3---3--3---3--3~-------------------------3~----------------------|
G:--2---2--2---0--0~-------------------------4~----------------------|
D:-(0)--0--0---0--0~-------------------------4~----------------------|
A:------x--x---2--2~---4--5--5s7--5--4--0----2~----------------------|
E:------2--2---3--3~-----------------------0--------



Rush - Afterimage

From the CD 'Grace Under Pressure'
Written by Lee/Lifeson/Peart
Mercury/Polygram Records 818476-2

This song is in the key of C. Standard tuning [EADGBe] (low to
high). 4/4 time. Play with some distortion.

Jimmy Pena - jimmy@protected.olga.net

| = not a standard bar line; just used to separate music
~ = vibrato or held note
x = percussive note with no pitch; muted note
. = staccato; mute the note immediately after striking it
h = hammer on
p = pull off
s = slide
b = bend string up to indicated pitch/fret
r = release bend to indicated string/fret
/ = slide up from infinity
\ = slide down into infinity
[5] = artificial harmonic (use thumb to follow through the pick
attack)
o \_
o / repeat sign (always look for these!)

[x35553] = fret box; this is a C chord - this is the same as standard
tablature, only turned on its side. Tilt your head clockwise to
read.

Chord legend:

Dm : [x57765]
C : [x3555x]
Dm11 : [x53553]
Csus2 : [x35533]


[Riff 1]
Am Em
e:-0--0~-------------------------------0~--------------------------|
B:-1--1------------------------------0-0---------------------------|
G:-2--2------------------------------0-0---------------------------|
D:-2--2---2-2-2-2--2-2-2-2--2-2-2-2--2-2---------------------------|
A:-0--0---0-0-0-0--0-0-0-0--0-0-0-0--2-2--2-2-2-2--2-2-2-2--2-2-2-2|
E:-----------------------------------0-0--0-0-0-0--0-0-0-0--0-0-0-0|
G F
e:---3~-----------------------------1--1~--------------------------|
B:-3-3------------------------------1--1---------------------------|
G:-0-0------------------------------2--2---------------------------|
D:-0-0--0-0-0-0--0-0-0-0--0-0-0-0---3--3---------------------------|
A:-2-2--2-2-2-2--2-2-2-2--2-2-2-2---3--3--3-3-3-3--3-3-3-3--3-3-3-3|
E:-3-3--3-3-3-3--3-3-3-3--3-3-3-3---1--1--1-1-1-1--1-1-1-1--1-1-1-1|

[Riff 2]
Am7 Dm C
e:--------------------5--|---5--5--5--5--5-------------------------|
B:--------------------5--|---6--6--6--6--6---5~--------------------|
G:o-------------------5-o|---7--7--7--7--7---5~--------------------|
D:o---------------------o|---7--7--7--7--7---5~--------------------|
A:-----------5--5-7------|---5--5--5--5--5---3~--------------------|
E:--3--5-----3--3-5------|-----------------------------------------|

[Riff 3]
Bbsus2 Gm7sus4
e:--1--1--1--1------1~---------------------------------------------|
B:--1--1--1--1------1~---------------------------------------------|
G:--3--3--3--3------3~---------------------------------------------|
D:--3--3--3--3------3~---------------------------------------------|
A:--1--1--1--1------x----------------------------------------------|
E:------------------3~---------------------------------------------|

[Riff 4a] [Riff 4b]

e:------13--12--10--12-------------|------13--12--10--12-----------|
B:--10------------------13--10~~---|--10------------------10~~-----|
G:---------------------------------|-------------------------------|
D:---------------------------------|-------------------------------|
A:---------------------------------|-------------------------------|
E:---------------------------------|-------------------------------|

[Riff 4c] [Riff 4d]

e:------13--12--10--12--[15]~~--|------13--12------12--[17]~~------|
B:--10--------------------------|--------------15------------------|
G:------------------------------|--14------------------------------|
D:------------------------------|----------------------------------|
A:------------------------------|----------------------------------|
E:------------------------------|----------------------------------|

[Riff 5]

e:--5-5-5--5-5-5--5-5-5--5-5-5-------------------------------------|
B:--6-6-6--6-6-6--6-6-6--6-6-6-------------------------------------|
G:--7-7-7--7-7-7--7-7-7--7-7-7-------------------------------------|
D:--7-7-7--7-7-7--7-7-7--7-7-7-------------------------------------|
A:--5-5-5--5-5-5--5-5-5--5-5-5-------------------------------------|
E:-----------------------------------------------------------------|

[Riff 6]
Am Em G
e:---------------------|----------------------|--------------------|
B:---------------------|----------------------|--------------------|
G:o--4-4-5-5-7-7-5-5--o|o------4-4-----------o|o------7-7-5-5-4-4-o|
D:o-------------------o|o--5-5------7-7-5-5--o|o--5-5-------------o|
A:---------------------|----------------------|--------------------|
E:---------------------|----------------------|--------------------|
F
e:---------------------|
B:---------------------|
G:o------5-5-4-4-2-2--o|
D:o--3-3--------------o|
A:---------------------|
E:---------------------|

[Riff 7]
Dm C
e:-13-13-13---13-13-13---12-12-12---15-15-15-----------------------|
B:-15-15-15---15-15-15---13-13-13---17-17-17-----------------------|
G:-14-14-14---14-14-14---12-12-12---17-17-17-----------------------|
D:-----------------------------------------------------------------|
A:-----------------------------------------------------------------|
E:-----------------------------------------------------------------|

[Riff 8]
Gm7sus4
e:--1---1----1-1-1-1-----3---3----3-3-3-3-------3-3--3~~-----------|
B:--1---1----1-1-1-1-----3---3----3-3-3-3-------5-5--6~~-----------|
G:--3---3----3-3-3-3-----5---5----5-5-5-5-------5-5--5~~-----------|
D:--3---3----3-3-3-3-----3---3----3-3-3-3------------0~~-----------|
A:--1---1----1-1-1-1-----5---5----5-5-5-5--------------------------|
E:-----------------------3---3----3-3-3-3--------------------------|

[Riff 9]
Dm C/D Dm
e:--13-13-13---13-13-13---15-15-15---17-17-17----------------------|
B:--15-15-15---15-15-15---15-15-15---15-15-15----------------------|
G:--14-14-14---14-14-14---12-12-12---14-14-14----------------------|
D:-----------------------------------------------------------------|
A:-----------------------------------------------------------------|
E:-----------------------------------------------------------------|


Song progression:

[Riff 1] x2

[Riff 1] x1 /w lyrics:
[hit xtra F cymbal
crashes]
Suddenly you were gone from all ....

[Riff 2] x4 /w lyrics:

I remember -
how we talked and drank into the ....

[Riff 3] x1 /w lyrics:

I feel the way ....([Riff 4a] x1)

[Riff 3] x1 /w lyrics:

I feel the ...([Riff 4b] x1)

[Riff 3] x1 /w lyrics:

I feel, I feel the ..... ([Riff 5] x1)

[Riff 6] x1 /w lyrics:

Tried to believe but you know ...

[Riff 2] x4 /w lyrics:

I remember -
the shouts of joy skiing fast .......

[Riff 3] x1 /w lyrics:

I feel ....([Riff 4a] x1)

[Riff 3] x1 /w lyrics:

I feel the way ....([Riff 7] x1)

[Riff 3] x1 /w lyrics:

I feel, I feel the ....([Riff 4c] x1)

[Riff 8] x1 /w lyrics:

This just can't be ....

Keyboard arr. for guitar:

This is a little sloppy but the keyboard plays each chord on the beat.

Dm Dm Dm Dm Dm Dm Dm Dm Dm Dm Dm Dm Dm Dm Dm Dm
Dm Dm Dm Dm Dm Dm Dm Dm
C C C C C C C C C C C C
Dm Dm Dm Dm Dm Dm Dm Dm Dm Dm Dm Dm
C C C C C C C C C C C C
Dm Dm Dm Dm11* Dm Dm Dm Dm Dm Dm Dm Dm
C C C Csus2* C C C C C C C C
Dm Dm Dm Dm* Dm Dm Dm Dm Dm Dm Dm Dm
C C C C* C C C C C C C C
Dm Dm Dm Dm11* Dm Dm Dm Dm Dm Dm Dm Dm
C C C C* C C C C C C C C C C

The noise you hear in the background is a keyboard. The guitar
strikes all notes with an asterisk.

[Guitar Solo]

e:---------5---------|----------------------|----------------------|
B:--6--x---6-----6---|---6--------6p5--6----|----------------6-----|
G:--7--x---7--7--7---|---7---7----7p5--7----|--------7--7p5--------|
D:--7--x---7--7--7---|---7---7----7p5--7----|-----7----------------|
A:--5--x---5--5--5---|---5---5----5----5----|---5------------------|
E:-------------------|----------------------|----------------------|

e:-----------------------|---------------------|---5--5--5--3--3---|
B:--5--5--5-------5------|--8--8--8--8\6---6\--|---6--6--6--5--5---|
G:--5--5--5-------5------|--9--9--9--9\7---7\--|-------------------|
D:--5--5--5----5--5--5---|---------------------|-------------------|
A:--3--3--3-------3------|---------------------|-------------------|
E:-----------------------|---------------------|-------------------|

e:----------------5-----|-----10--10~--10--10--|----13-13-13-13-13-|
B:--6---------6---6-----|-----10--10~--10--10--|-15-15-15-15-15-15-|
G:--7---------7---7-----|-----12--12~--12--12--|-14----------------|
D:--7---7-----7---7-----|----------------------|-------------------|
A:--5------5------5-----|----------------------|-------------------|
E:----------------------|----------------------|-------------------|

e:----13--------|--------------12------------------|---------------|
B:-15-15-15-----|--13--13------13----------13------|---------------|
G:-14----14-----|--12--12--12--12------12--12--12--|---------------|
D:--------------|--14--14--14----------14--14--14--|---------------|
A:--------------|----------------------------------|---------------|
E:--------------|----------------------------------|---------------|

e:--12--13--12---15-12-15---|--13-12------13-12-----13\------------|
B:--13--13--13---13-13-13---|--13-13-13---13-13-13--13\------------|
G:--12--12--12---12-12-12---|--12-12-12---12-12-12--12\------------|
D:--------------------------|--------------------------------------|
A:--------------------------|--------------------------------------|
E:--------------------------|--------------------------------------|

e:------5------5---|--8---8---8---5--|-----------------------------|
B:------6------6---|--6---6----------|--6---6s8--------------------|
G:--7---7------7---|--9---9----------|-----------7-----------------|
D:--7---7------7---|--7---7----------|-----------------------------|
A:--5---5------5---|-----------------|----------------------10-----|
E:-----------------|-----------------|-----------------------8-----|

e:-----------------8----/5--5-5-5-5-5-5-5-5-5-5---3~~--------------|
B:--8----8--8--8---8----/6--6-6-6-6-6-6-6-6-6-6---5~~--------------|
G:--9----9--9--9---9----/5--5-5-5-5-5-5-5-5-5-5---5~~--------------|
D:-10---10-10-10--10-----------------------------------------------|
A:-10---10-10-10---------------------------------------------------|
E:--8--------------------------------------------------------------|

e:--------------------20---20~~------------------------------------|
B:--17--17--15-18p17--17---17~~------------------------------------|
G:--17--17--16-17-----17---17~~------------------------------------|
D:--17--17--17-17-----17---17~~------------------------------------|
A:-----------------------------------------------------------------|
E:-----------------------------------------------------------------|

[Riff 6] x1

[Riff 6] x1 /w lyrics:

I tried to believe but you ....
[Riff 2] x2 /w lyrics:

I remember -

[Riff 3] x1 /w lyrics:

I feel the way you ...([Riff 4a] x1)

[Riff 3] x1 /w lyrics:

I feel the way y...([Riff 9] x1)

[Riff 3] x1 /w lyrics:

I feel, I feel ....([Riff 4d] x1)

[Riff 3] x1 /w lyrics:

This just can't be ....


e:------10~------10~------20b22~~~~~-------------------------------|
B:------10~------10~-----------------------------------------------|
G:--12~------12~---------------------------------------------------|
D:--12~------12~---------------------------------------------------|
A:-----------------------------------------------------------------|
E:-----------------------------------------------------------------|
No!


e:---1------1--1-----3------3--3-------3~~-------------------------|
B:---1------1--1-----3------3--3-------6~~-------------------------|
G:---3------3--3-----5------5--5-------5~~-------------------------|
D:---3------3--3-----3------3--3-------3~~-------------------------|
A:---1------1--1-----5------5--5-------5~~-------------------------|
E:-------------------3------3--3-----------------------------------|




Anagram (For Mongo) By: Rush
================================

q e e e e e e +e e e e e e e e e e e e e e e e +e e e e e e
e e
+-----------------+------------------+-----------------+--------------
----+
|4:---------------|------------------|-----R---------3-|----3-3---3-2-
----|
|4:-------------5-|----5-5-5-5-5-5---|-3-3---3-3-3-3---|--------3-----
5-3-|
+---3-3-3-3-3-3---+----------------5-+-----------------+--------------
----+


q e e e e e e +e e e e e e e e e e e e e e e e +e e q e Q h
h +w
+---------------+------------------+-----------------+------------+---
--+----+
|---------------|------------------|-----------------|------------|---
R-|----|
|-------------5-|----5-5-5-5-5-5---|-3-3-3-3-3-3-3---|------------|---
--|----|
+-3-3-3-3-3-3---+----------------5-+---------------5-+----5-5-5-5-+-3-
--+----+


+w +w +w +w +w +H q e e q e e q e e q e e q e e e e
e e q
+----+----+----+----+----+-------+-------------+-------------+--------
-------+
|----|----|----|----|----|-------|-----R-----R-|-----R-----R-|--------
-----R-|
|----|----|----|----|----|----12-|-------------|-------------|-6-6-6--
-6-6---|
+----+----+----+----+----+-------+-3-3---3-3---+-3-3---3-3---+-------
6-------+


e e Q e e e e e e e e e q e e e e e e e e e e e e e e e e
+-------------+---------------+-----------------+-----------------+
|-----R-------|-----R-------R-|-----R-----------|-----R-------R---|
|-6-6---6-5-3-|---------------|-------------0-1-|-3-3-----3-----3-|
+-------------+-1-1---0-1-1---+-1-1---0-1-3-----+-------3---3-----+


e e e e e e e e e e e e e e e e e e e e e e e e q e e e e e e
+-----------------+-----------------+-----------------+---------------
+
|-----7-----7-7-7-|-----R-------R---|-----R-----------|---------------
|
|-5-5---5-5---5-5-|-----------------|-----------------|-3-3-3-3-3-3-3-
|
+-----------------+-3-3---3-3-3---3-+-3-3---3-3-3-3-3-+---------------
+


e e e e e e e e e e e q e e e e e e e e e e e e e e e e e e e
+-----------------+---------------+-----------------+-----------------
+
|---------------0-|-2-2-2-2-2-2-2-|-2-2-2-2-2-2-2---|-----------------
|
|-3-3-3-3-3-3-3---|---------------|---------------0-|-2-2-2-2-2-2-2-2-
|
+-----------------+---------------+-----------------+-----------------
+


e e e e e e e e q H +w +w +w e e e e e e e e e e e e e e
e e
+-----------------+-----+----+----+----+-----------------+------------
-----+
|-----------------|---R-|----|----|----|-----R-------R---|-----R------
-----|
|-3-3-3-3---------|-----|----|----|----|-----------------|------------
-----|
+---------1-1-1-1-+-3---+----+----+----+-1-1---1-1-1---1-+-1-1---1-1-
1-1-0-+


e e e e e e e e e e e e e e e e e e e e e e e e e e e e e e e
e
+-----------------+-----------------+-----------------+---------------
--+
|-----R-------R---|-----R---R-------|-----R---R---R---|-R---R---------
--|
|-3-3---3-3-3---3-|-5-5---5---5-5-5-|-----------------|---------------
--|
+-----------------+-----------------+-3-3---3---3---3-+---3---3-3-3-3-
3-+


e e e e e e e e e e e e e e e e q q e e e e +e e e e e e e e
+-----------------+-----------------+-------------+------------------+
|-----R-----R-----|-----------------|-------------|------------------|
|-6-6---5-5---3-3-|-3-1-1-1-0-0-1-3-|-------------|--------------0-1-|
+-----------------+-----------------+-1-1-1-1-1-1-+----1-1-1-1-3-----+


e e e e e e e e q e e e e e e e e e e e e e e e e e e e e e e
+-----------------+---------------+-----------------+-----------------
+
|-----------------|---------------|-----R---R-------|-----------------
|
|-3-3-3-3---3---3-|-5-5-5-5-5-5-5-|-----------------|-----------------
|
+---------3---3---+---------------+-3-3---3---3-3-3-+-3-3-3-3-3-3-3-3-
+


e e e e e e e e e e e e e e e e e e e e e e e e e q e e e e e
+-----------------+-----------------+-----------------+---------------
+
|-----------------|---------------0-|-2-2-2-2-2-2-2-2-|-2-2-2-2-2-0-2-
|
|-3-3-3-3-3-3-3-3-|-3-3-3-3-3-3-3---|-----------------|---------------
|
+-----------------+-----------------+-----------------+---------------
+


e e e e e e e e e e e e e e e e e e e e e e e e +e e e e e e e
e
+-----------------+-----------------+-----------------+---------------
---+
|-----------------|-----------------|-----R---R-----R-|------R--------
---|
|-2-2-2-2-2-2-0-2-|-3-3-3-3---------|-----------------|---------------
-2-|
+-----------------+---------1-1-1-1-+-3-3---3---3-3---+----3---3-3-3-
3---+


q e e e e q e e e e e e e e e e e q e e e e e e e e e e e
+-------------+-----------------+---------------+-----------------+
|-------------|---------------0-|-2-2-2-2-2-2-2-|-2-2-2-2-2-2-0-2-|
|-3-3-3-3-3-3-|-3-3-3-3-3-3-3---|---------------|-----------------|
+-------------+-----------------+---------------+-----------------+


e e e e e e e e +e e e e e e e e q e e e e e e +Q e e e e e
+-----------------+------------------+---------------+--------------+
|-----------------|------------------|---------------|--------------|
|-2-2-2-2-2-0-2-3-|----3-3-3---------|---------2-3-5-|----5-5-5-5---|
+-----------------+----------1-1-1-1-+-3-3-3-3-------+------------5-+


q q e e e e +e e e e e e e e q q e e e e +e q e e e e e q q
e e e e
+-------------+------------------+-------------+----------------+-----
--------+
|-----------3-|----3-3---3-2-----|-------------|----------------|-----
--------|
|-3-3-3-3-----|--------3-----5-3-|-----------5-|----5-5-5-7-5-7-|-3-3-
3-3-3---|
+---------3---+------------------+-3-3-3-3-3---+----------------+-----
------5-+


+Q e e e e e q e e e e e e e q q e e e q q e e e e +e e e e
e e e e
+--------------+---------------+-------------+-------------+----------
--------+
|--------------|---------------|-------------|-----------3-|----3-3---
3-2-----|
|------------2-|---------2-3-5-|-5-5-5-5-5---|-3-3-3-3-3---|--------3-
----5-3-|
+----5-5-5-5---+-3-3-3-3-------+-----------5-+-------------+----------
--------+


q q e e e e +q e e e e e e q q e e e e +e e q e e e e q q e
e e e
+-------------+----------------+-------------+----------------+-------
------+
|-----------2-|----2-2-2-2-2-2-|-------------|--------R-------|-------
------|
|-------------|----------------|-3-3-3-5-3---|----------------|-------
------|
+-3-3-3-3-3---+----------------+-----------5-+----5-5---5-5-5-+-3-3-3-
3-3-3-+


e e e e e e e e e e e e e e e e e e e e e e e e q e e e e e e
+-----------------+-----------------+-----------------+---------------
+
|-R---------------|-----------------|-----------------|---------------
|
|-----------------|-6-6-6-5-5-5-6-6-|-6-5-5-5-3-3-----|---------------
|
+---3-3-3-3-3-3-3-+-----------------+-------------6-5-+-1-1-1-1-1-1-1-
+


+e e e e e e e e q q e e e e q e e e e e e q e e e e e e
+------------------+-------------+---------------+---------------+
|------------------|-------------|---------------|---------------|
|----------------1-|-3-3---3---3-|-5-5-5-5-5-5-5-|---------------|
+----1-1-1-1-1-1---+-----3---3---+---------------+-3-3-3-3-3-3-3-+


e e e e e e e e e e e e e e e e e e e e e e e e e e Q e e e
+-----------------+-----------------+-----------------+-------------+
|-----------------|-----------------|-----------------|-------------|
|-----------------|-6-6-6-5-5-5-3-3-|-3-6-5-3-1-0-1-3-|-------------|
+-3-3-3-3-3-3-3-3-+-----------------+-----------------+-1-1-1-1-1-1-+


e e e e e e e e q e e e e e e e e e e e e e e q e e e e e e
+-----------------+---------------+-----------------+---------------+
|-R---R-----------|---------------|-----------------|---------------|
|-------------0-1-|-3-3-3---3---3-|-5-5-5---5---3-5-|---------------|
+---1---1-1-3-----+-------3---3---+-------5---5-----+-3-3-3-3-3-3-3-+


e e e e e e e e Q Q q +e Q E s e e e e e e e e e e e e e e e
e e e
+-----------------+-------+--------------+-----------------+----------
-------+
|-----------------|-1-1-1-|----1-1-1-1-1-|-2-2-2-2-2-2-2-2-|-2-2-2-2-
2-2-0-2-|
|---------------1-|-------|--------------|-----------------|----------
-------|
+-3-3-3-3-3-2-3---+-------+--------------+-----------------+----------
-------+


Q Q e e e e e e e e e e q e e e e e e e e e e e e e e q e e
q e e
+---------+-----------------+---------------+-----------------+-------
------+
|---------|-----------------|---------------|-----------------|-------
------|
|-2-2-2-2-|-3-3-3-3---------|---------------|---------------2-|-3-3-3-
3-3-3-|
+---------+---------1-1-1-1-+-3-3-3-3-3-3-3-+-3-3-3-3-3-3-3---+-------
------+


e e e e e e s E Q Q q +h q^q^q^ Q q q e +H q e e e e e e e
e
+-----------------+-------+----------+---------+------+---------------
--+
|-----------------|-------|----------|---------|------|---------------
--|
|-3-3-3-3-3-3-3-3-|-------|----------|-3---3-5-|----5-|-----------2-3-
5-|
+-----------------+-1-1-1-+----1-1-1-+---3-----+------+-3-3-3-3-3-----
--+


+e q q e e e q q e e e e +e e e e e e e e e e e e e e e e
+--------------+-------------+------------------+-----------------+
|--------------|-----------3-|----3-3---3-2-----|---------------2-|
|----5-5-5-5---|-3-3-3-3-3---|--------3-----5-3-|-----------------|
+------------5-+-------------+------------------+-3-3-3-3-3-3-3---+


+e q e e e e e e e e e e e e e s s s s s e s s s s s s s s s w
+w
+----------------+-----------------+-------------------------------+--
-+----+
|----2-2-2-2-2-5-|-----------------|---5-------5-5-----------------|--
-|----|
|----------------|-3-3-3-3-3-5-3---|-----5-6-7-----5-7-5-3-2-0-2-0-|--
-|----|
+----------------+---------------5-+-5-----------------------------+-
3-+----+


+w +w
+----+----+
|----|----|
|----|----|
+----+----+


======================================================================
====

Created using the Bass Tab Creator
__ by Mario D'Alessio (motcid!marble!dalessio)
+|oo|+
+|oo|+ Notes: w = Whole h = Half q = Quarter
|| e = 8th s = 16th t = 32nd x = 64th
||
|| Capital durations are dotted notes
|| (equal to 1.5 times the duration value)
||
|| #
|| +----+ +----+
_ || _ |*--*+ = MEASURE |4:--| = TIME
\\_||_// |*--*+ REPEATS |4:--| SIGNATURES
| [] | +----+ (#=Num Repeats) +----+
| || |
/ [] \ + = TIE ^ = TRIPLET > = BEND
\______/ H = HAMMER ON \ = SLIDE TO FRET R = Rest
P = PULL OFF \X = SLIDE TO NOWHERE ~ = Trill



analog kid
rush off 'signals' album

Griz

riff [A]
A A
----------------------------------|
-2--2-----------------------------| o
-2--2-----------2_0---4_2_0-------| o
-2--2-----0_2_4-----4-------4_2_0-|
-0--0-----------------------------|
----------------------------------|

intro Try this:
B * F# *
B B B * * * --------------------------------------
B B B * * * -----4------5-------11----12----------
B B B * * * -----4------4-------11----11----------
F# F# F# * * * repeat (3X) -----4------4-------11----11----------
[key change] -----2------2--------9----9-----------
--------------------------------------
G G C C C
A hot and windy ...
G G G C C CB C D
Has the trees in ...
E E A
With a ...
E A
As they're rocking ....

riff [A] (twice)
A D
The boy lies in the ...
A D
Stuck between ...
A D
A vague ...
A D
In his young and ...
G C
And a bright and ...
G C
Has him ...

{Riff A}

F F F F F G G G G G F
You move me --....
G C
The fawn-eyed girl ...
G C
Dances on the edge of ...
E A
And her voice ...
E A
Like the music of ....

A A G A G D
A A G A G D
A D
The boy lies in ....
A D
Staring at....
A D
His mother starts ...
A D
As a hawk ...
G C
The boy pulls down ...
G C
And covers ...

{Riff A} Hold G form like
this:
Am G *move pinky off
chord
Am Am Am Am G G * * 5-----3------------3------------
Am Am Am Am G G * * 5-----3------------3------------
5-----4------------4------------
Too many hands on my .... 7-----5-----*------3------------
Too many ..... 7-----5------------5------------
Too many things on ....5-----3------------3------------

F F F F G G G G
When I leave I .....

[impossible solo] ;-)

It's better to make up your own solo anyway. :)


Hope you enjoy!

Pat & Chris "Griz"


Animate

As recorded on Counterparts.

Transcribed by Rowen S. Poole (r.poole@protected.olga.net)

Riff #1 1a
r r r
E --------------------------------------------------------------------
--------
B ---------1-------------1-------------1-------------1-------------1--
--------
G -----2-0---2-------2-0---2----0--2-0---2----0--2-0---2-------2-0---
2--------
D --0-------------0---------------------------------------------------
--------
A ----------------------------------------------------------1---------
--------
E --------------------------------------------------------------------
--------
r r r
E -----------------------------------------
B ---------1-------------1-------------1---
G -----2-0---2-------2-0---2-------2-0---2-
D ------------------------------0----------
A --3-------------3------------------------
E -----------------------------------------

Riff #2 Riff #3

E ------------------------------|---------------------------------
B ------------------------------|---------------------------------
G ------------------------------|---------------------------------
D ------------------------5-5^7-|-5-5-5-5-5-5-5-5-5-5-5-5-5-5-5-5-
A --0-0-0-0-0-0-0-0-0-5-7-------|---------------------------------
E ------------------------------|---------------------------------


Riff #4

E ----------------------------------
B ----------------------------------
G ----------------------------------
D --0-0-0-0-0-0-0-0-0-0-0---0---0-0-
A ------------------------3---3-----
E ----------------------------------


Riff #5

Em G
E --0---------------------|--7----------------------------------------
--------
B --0---------------------|--8----------------------------------------
--------
G --0---------------------|--7----------------------------------------
--------
D --2---------------------|--0----------------------------------------
--------
A --2---------------------|--x----------------------------------------
--------
E --0---------------------|--x----------------------------------------
--------


Riff #6
Dm Fsus Bb C
E --5--5-5--5-5--5----8--8-8--8--8----6--6-6-6---8--8-8--8-8--8--
B --6--6-6--6-6--6----8--8-8--8--8----6--6-6-6---8--8-8--8-8--8--
G --7--7-7--7-7--7----10-1010-10-10---7--7-7-7---9--9-9--9-9--9--
D --7--7-7--7-7--7----10-1010-10-10---8--8-8-8---10-1010-1010-10-
A --5--5-5--5-5--5----8--8-8--8--8----8--8-8-8---10-1010-1010-10-
E --5--5-5--5-5--5----8--8-8--8--8----6--6-6-6---8--8-8--8-8--8--

Riff #1 twice
Riff #2 8 times *
Riff #3 once
Riff #2 twice
Riff #4 once
Riff #2 twice
Riff #1 once
Repeat this sequence once

replays 3-8

Repeat Riff #5 during solo section 8 times. Solo over Em and G using
key of
G.

Then, repeat Riff #1 once then goto part 1a once
Final part of song (fade out) is Riff #6 over top of Riff#1

r = let this note ring



Anthem

By: Rush

Intro Riff
h p p p h p p p h p p
|-------------------------------------------------------------------|
|.-----------------------------------------------------------------.|
|--------5--7-------------------------------------------------------|
|.-5--7--5--7-----2--0-2-0----------2--0-2-0----------2--0-2-0-----.|
|--5--7--3--5--------------2-0---------------2-0---------------2-0--|
|--3--5--------0---------------3-0---------------3-0----------------|

Riff A

|-----------------------------------------------------------------|
|.-9-9-9-9\-------------------9-9-9-9\------------------9-9-9-9\--|
|--9-9-9-9\-------------------9-9-9-9\------------------9-9-9-9\--|
|.-9-9-9-9\-------------------9-9-9-9\------------------9-9-9-9\--|
|-----------------------------------------------------------------|
|------------0-0--0---0-0-0-0-----------0-0--0--0-0-0-0-----------|


|-------------------------------|
|-----------------0--2----5--7-.|
|-----------------0--2----5--7--|
|-----------------0--2----5--7-.|
|-------------------------------|
|-0-0--0--0-0-0-0---------------|

Verse Riff

E C D E E7 E C D E
|-------------------------------0---3---5-----2------------|
|---0-----1-----3-------------0---1---1---3-----3----------|
|-----1-----0-----2---------1----------------------1-------|
|-2-----2-----4-----2--2-0------------------4------2--2-0--|
|(2)-------------------------------------------------------|
|(0)-------------------------------------------------------|

Chorus

G A C D E
|-3--------------------------------|
|-3----2---3-2--2-0---1--3---------|
|-0-----------------2-0--2---------|
|-0--2---2------------2--4--2--2-0-|
|-X--------------------------------|
|-3--------------------------------|


G A C D C D C D
|-3-------------------------------------------------------------------
|
|-3----2---3-2--2-0-5--5-5-5-5-7--7--5--5-5-5-5-7--7--5--5-5-5-5-7--7-
|
|-0-----------------5--5-5-5-5-7--7--5--5-5-5-5-7--7--5--5-5-5-5-7--7-
|
|-0--2---2----------5--5-5-5-5-7--7--5--5-5-5-5-7--7--5--5-5-5-5-7--7-
|
|-X-----------------3--3-3-3-3-5--5--3--3-3-3-3-5--5--3--3-3-3-3-5--5-
|
|-3-------------------------------------------------------------------
|


2ND Time
|-------------------3---2---------------------------------------------
|
|-9-9---9-9---9-9---3---3---------------------------------------------
|
|-9-9---9-9---9-9---0---3---------------------------------------------
|
|-9-9---9-9---9-9---0---0---------------------------------------------
|
|-7-7---7-7---7-7---X---0---------------------------------------------
|
|-0-0---0-0---0-0---3-------------------------------------------------
|

Solo over E and D


Key:
/ or \ slide
h hammer-on
p pull-off


Rush - Bastille Day

Rush - Bastille Day

From the CD 'Caress of Steel'
Written by Lee/Lifeson/Peart
Mercury/Polygram Records 822543-2

There are at least 3 guitars in this song, 2 electric and 1
acoustic. The song is in the key of G. Many, many helpful
contributions by
Branden Robinson <branden@protected.olga.net> and Rich Soto
<lerxst@protected.olga.net>.

Jimmy Pena - jimmy@protected.olga.net

| = not a standard bar line; just used to separate music
~ = vibrato or held note
h = hammer on
p = pull off
^ = upstroke
V = downstroke
tr = trill; play the note(s) indicated rapidly and repeatedly (same
thing
as tremolo picking)
o \_
o / repeat sign (always look for these!)

[Intro] - doubled electrics
e:-----------------------------------------------------------------|
B:-----------------------------------------------------------------|
G:o---------------------------------------------------------------o|
D:o---------------------------------------------------------------o|
A:-----------------------------------------------------------------|
E:---3h5-5-5-5-5-5--3h5-5-5-5-5-5-3h5-5-5-5-5-5---3-3-3-2--2--0----|

e:-----------------------------------------------------------------|
B:-----------------------------------------------------------------|
G:o---------------------------------------------------------------o|
D:o---------------------------------------------------------------o|
A:-----------------------------------------------------------------|
E:---5h7-7-7-7-7-7--5h7-7-7-7-7-7--5h7-7-7-7-7-7--5-5-5-4--4--2----|

[Riff 1] - doubled electrics
E5 G5 C5/G D5/A A5 D5/A
e:--------------------------------|------------------------------|
B:--------------------------------|------------------------------|
G:-----------5-5--7--7----7\------|------------5-5--7--7---------|
D:---2--2-5--5-5--7--7-7--7\------|---2-2-2-5--5-5--7--7-7-------|
A:---2--2-5--3-3--5--5-7--5\------|---2-2-2-5--3-3--5--5-7--5\---|
E:---0--0-3--3-3--5--5-5--5\------|---0-0-0-3--3-3--5--5-5-------|

[Riff 2] - doubled electrics
G C G5 A5
e:---3~--------0~--------------------------------------------------|
B:---3~--------1~------------------------7-7-7-7-7--7-7-7-7--------|
G:---0~--------0~------------------------7-7-7-7-7--7-7-7-7--------|
D:---0~--------2~-----------5~--5-7~--7--7-7-7-7-7--7-7-7-7--------|
A:---2~--------3~--3-2~-0~--5~--5-7~--7--5-5-5-5-5--5-5-5-5--------|
E:---3~-3-2-3---------------3~--3-5~--5----------------------------|
V ^ V ^ V ^ V ^ V
[Riff 3] - doubled electrics
-----------------------------------------
G D/F# C G |1. G5 A5 D5 |2. G5 A5 E5
e:---3------------|------------------|-----------------------------|
B:---3--3----3--3-|------------------|-----------------------------|
G:o--0--2----0--0-|-----------7-7-7-7|----------------------------o|
D:o--0--0----2--0-|---5---7---7-7-7-7|---5---7\--2----------------o|
A:---2--x----3--2-|---5---7---5-5-5-5|---5---7\--2-----------------|
E:---3--2---------|---3---5----------|---3---5\--0-----------------|

[Riff 4] - doubled electrics
D5 A5 G D/F#
e:----------------------------------------------------------|
B:----------------------------------------------------------|
G:o-7-7-7-------7-7-7-------7-7-7--------------------------o|
D:o-7-7-7-7-7-7-7-7-7-7-7-7-7-7-7-7-7-7--------------------o|
A:--5-5-5-7-7-7-5-5-5-7-7-7-5-5-5-7-7-7-----5-5-----5-5-----|
E:--------5-5-5-------5-5-5-------5-5-5---3-------2------0--|

E5 B5 A
e:--------------------------------------------------------------|
B:--------------------------------------------------------------|
G:o-9-9-9-------9-9-9-------9-9-9------------------------------o|
D:o-9-9-9-9-9-9-9-9-9-9-9-9-9-9-9-9-9-9------------------------o|
A:--7-7-7-9-9-9-7-7-7-9-9-9-7-7-7-9-9-9-----7-7---7-7-----------|
E:--------7-7-7-------7-7-7-------7-7-7---5-----4------2-2------|

[Riff 5] - doubled electrics
D5 A5 E5 B5
e:-----------------|--------------|----------------|---------------|
B:-----------------|--------------|----------------|---------------|
G:o--7-7-7--------o|-7-7-7--------|o-9-9-9--------o|--9-9-9--------|
D:o--7-7-7-7-7-7--o|-7-7-7-7-7-7--|o-9-9-9-9-9-9--o|--9-9-9-9-9-9--|
A:---5-5-5-7-7-7---|-5-5-5-7-7-7--|--7-7-7-9-9-9---|--7-7-7-9-9-9--|
E:---------5-5-5---|-------5-5-5--|--------7-7-7---|--------7-7-7--|
pause pause
C5 G5
e:--------------------|----------------------------|
B:--------------------|----------------------------|
G:o---5-5-5----------o|--5-5-5---------------------|
D:o---5-5-5--5-5-5---o|--5-5-5--5-5-5--------------|
A:----3-3-3--5-5-5----|--3-3-3--5-5-5--------------|
E:-----------3-3-3----|---------3-3-3--------------|


Song progression:

[Intro] x1

[Riff 1] x4

[Riff 1] x2 w/ lyrics:

Ooh, there's no bread, let ....

[Riff 2] x2 w/ lyrics:

But they're marching to Bastille ...

[Riff 1] x2

[Riff 1] x2 /w lyrics:

Ooh, bloodstained velvet....

[Riff 2] x2 w/ lyrics:

And we're marching to ....

[Riff 3] x1

[Bridge] - doubled electrics play the double stop bends, while an
acoustic
plays the chords above
Em B Em C D A Gsus4 Asus4 Em
e:-----------------------------------------------------------------|
B:-8------7~-----8-----8-----5~---7----5~----1---3---5~------------|
G:-10b12--9b11~--10b12-10b12-7b9~-9b11-7b9~--3b4-5b7-7b9~----------|
D:-----------------------------------------------------------------|
A:-----------------------------------------------------------------|
E:-----------------------------------------------------------------|
Em B Em C D A Gsus4 Asus4 Em
e:-----------------------------------------------------------------|
B:-8------7~-----8-----8-----5~---7~----10~-----1-----3-----5------|
G:-10b12--9b11~--10b12-10b12-7b9~-9b11~-12b14~--3b4---5b7---7b9----|
D:-----------------------------------------------------------------|
A:-----------------------------------------------------------------|
E:-----------------------------------------------------------------|


Guitar Solo over [Riff 4] x1 and [Riff 5] x1

e:---------------------------------------|---------------------------|
B:---------------------------------------|---------------------------|
G:-12p11p9---12p11p9--12p11p9--12b14~~~--|-12-12-12-12-12p11p9----9--|
D:---------------------------------------|---------------------12----|
A:---------------------------------------|---------------------------|
E:---------------------------------------|---------------------------|

e:----------------|--------------------------------------------------|
B:----------------|--------------------------------------------------|
G:----------------|---------8-9-11~~---9-11-11b12-11-11b12-11b12r11--|
D:-12-11-9-11-7~--|-/9~~--9------------------------------------------|
A:----------------|--------------------------------------------------|
E:----------------|--------------------------------------------------|

e:-------|-----------------------------------------------------------|
B:-------|-----------------------------------------------------------|
G:-9~~---|--14b16-14b16~~--14b16-14b16~~--14-14-14p12p11-9--11-9-----|
D:-------|-------------------------------------------------------12--|
A:-------|-----------------------------------------------------------|
E:-------|-----------------------------------------------------------|

e:---------------|----------------------------------------------------
-|
B:---------------|----------------------------------------------------
-|
G:-9--9-9-9-8~~--|------------------9---11-12p11p9-11-9---------------
-|
D:---------------|--12p11p9---11-12---------------------12p11---11-12-
-|
A:---------------|---------12---------------------------------12------
-|
E:---------------|----------------------------------------------------
-|

e:-------------------------------------------------------------------|
B:-------------------------------------------------------------------|
G:--9--11-12p11p9-11-9---------------9-9-9-9--8-9~~--9-8~~--9p8-8-8--|
D:---------------------12p11p9-11-12---------------------------------|
A:-------------------------------------------------------------------|
E:-------------------------------------------------------------------|

e:-------------------------------------------------------------------|
B:-------------------------------------------------------------------|
G:-----------8-9-11-13-14-14p13p11h14p13p11--9-11--9-8---------------|
D:-9~---9-9--------------------------------------------9---9---------|
A:-----------------------------------------------------------10-10---|
E:-------------------------------------------------------------------|


e:------------------------------------|---------------------------|
B:------------------------------------|---------------------------|
G:------------------------------------|--7tr0--7\-----------------|
D:----------12-9-9-9-9~--9------------|---------------------------|
A:-10-10-10----------------10-10-10---|---------------------------|
E:------------------------------------|---------------------------|

(this part comes in over the fill below)
e:------------------------------------------------|
B:------------------------------------------------|
G:---16-12~~~h14~p12~-----------------------------|
D:------------------------------------------------|
A:------------------------------------------------|
E:------------------------------------------------|

While coming out of the solo, play this:

e:--------------------------------|-------------------------5--5---|
B:--------------------------------|-------------------------7--7---|
G:------------5---7-7-------7-----|----------------5--7-----7--7---|
D:---2----5---5---7-7--7----7-----|---2--2--2---5--5--7-----7--7---|
A:---2----5---3---5-5--7----5-----|---2--2--2---5--3--5-----5--5---|
E:---0----3---3---5-5--5----5-----|---0--0--0---3--3--5--0---------|

[Riff 1] x2 /w lyrics:

Lessons taught but never .....

[Riff 2] x2 /w lyrics:

For they marched up to ...

[Riff 3] x1 [do 1st ending TWICE]

[Riff 5] x1

[Outro]:

e:---------------------------------------------|
B:---------------------------------------------|
G:---------------------------------------------|
D:---------------------------------------------|
A:--4-5----------4-5----------4-5--------------|
E:------0-4-5-5------0-4-5-5------0-4-5-5------|

e:---------------------------------------------|
B:---------------------------------------------|
G:---------------------------------------------|
D:---------------------------------------------|
A:-6-7-----------6-7----------6-7--------------|
E:------0-6-7-7------0-6-7-7------0-6-7-7------|

e:---------------------------------------------|
B:---------------------------------------------|
G:---------------------------------------------|
D:---------------------------------------------|
A:-7-8-----------7-8----------7-8--------------|
E:------5-7-8-8------5-7-8-8-------5-7-8-8-----|

(acoustic plays the chord names here as above)
G D/F# G C G/B D G A D
e:-----------------------------------------------------------------|
B:-----------------------------------------------------------------|
G:-----------------------------------------------------------------|
D:--9~--9--7--9---10~-10--9--7~--7h9~-9--9h11~-11--11h12~~---------|
A:-----------------------------------------------------------------|
E:-----------------------------------------------------------------|

feedback on this note
G D/F# G C G/B D7 G D7 G \/
e:----------------------------------------------------------15~~------
|
B:--------------------------------------------------------------------
|
G:--12~--12--11--12~-17~-17--16--14~-14s16~-16--14~-14--12~-----------
|
D:----------------------------------------------------------------5---
|
A:----------------------------------------------------------------5---
|
E:----------------------------------------------------------------3---
|





Before and After
Music and Lyrics by Lifeson, Lee, and Rutsey
Transcribed by Tony Zimmermann <anthonyz@protected.olga.net>
Comments welcome

Gtr. 1 (clean elec.)
----------<12>------------<12>-----------<12>-------------------------
-----<12>------<5>---<12>------<5>--<12>------<5>---------------------
----------------------------------------------------------------------
----------------------------------------------------------------------
----------------------------------------------------------------------
----------------------------------------------------------------------

Gtr. 2 (clean elec.)
-----0---------------0---------------0---------0----------------------
-----0---------------0---------------0---------0----------------------
----13---------------8---------------6---------1----------------------
----14---o//o--------9---o//o--------7---o//o--2---o//o---------------
----14---------------9---------------7---------2----------------------
----12---------------7---------------5---------0----------------------
E(XII) Badd4 Aadd2 E
Double Gtr. 2 with 12-string Acoustic 2nd time
==

----------------------------------------------------------------------
----------------------------------------------------------------------
----------------------------------------------------------------------
----------------------------------------------------------------------
--<7>---------<7>--------<7>------9-----------------------------------
-------<7>---------<7>-------<7>-----<12>-----------------------------

--0---0--------0---0-----0-----------0--------------------------------
--0------0-----0------0--0-------2---0--------------------------------
--x------------x---------6-------2---1--------------------------------
--4------------6---------7---6---4---2--------------------------------
--4------------6---------7---6-------2--------------------------------
--2------------4---------5---4-------0--------------------------------

==
---------0----------------0------------0--------------------0---------
----------------------------------------------------------------------
------------8----------------8-----------6---------------------6------
-------9--------9-------9-----------7---------7----------7----------7-
-----9--------9------9------------7--------7----------7-----------7---
--7---------------7-------------5------------------5------------------

variation
-----------0-----------------7-P-0-0-0--------0--------------7P0-0-0--
------------------7-P-0-0-0-------------------------5P0-0-0-----------
--------------8----------------------------------6--------------------
--------9-----------------------------------7-------------------------
-----9------------------------------------7---------------------------
--7-------------------------------------5-----------------------------

--0---- Bass 8va --0-- ---0-----------------------------
--0---- --0-- ---0-----------------------------
--x--------------------x----------------6-----------------------------
--4-----{4}-----{4}----6--{6}-----{6}---7----|----|--|--|--|----------
--4-------{4}-{4}------6----{6}-{6}-----7----/----/--/--/--/----------
--2---------{2}--------4------{4}-------5-----------------------------

=
----------------------------------------------------------------------
----------------------------------------------------------------------
---2--2--2--2--2---------------------7--x-----------------------------
---2--2--2--2--2-----x--x--x--x--5---7--x-----------------------------
---0--0--0--0--0-----x--x--x--x--5---5--x-----------------------------
---------------------x--x--x--x--3------------------------------------


----------------------------------------------------------------------
----------------------------------------------------------------------
----------------------------------------------------------------------
(half
---2--2--2--2--2--------0---------------2-2-2-2-2------0--------------
step
---2--2--2--2--2--0-H-2---0--2-P-0------2-2-2-2-2--0H2---0-2-P-0----H-
bend)
---0--0--0--0--0--------------------3---0-0-0-0-0----------------3-(3)


-----------------------------|----------------------------------------
-----------------------------|----------------------------------------
--5---5--5------------7--3---|----------------------------------------
--5---5--5---2-3-4-5--7--3---|----------------------------------------
--3---3--3------------5--1---|------------1---------------------------
-----------------------------|---1--2--3-----3------------------------

Leads :
----------------------------------------------------------------------
-------------F-------------3/4--------------------F---F---F---F-------
------------(5)--grad.rel.-(5)---------------3-5-(5)-(5)-(5)-(5)------
----------------------------------------------------------------------
-------1------------------------------1-------------------------------
-1-2-3---3----------------------1-2-3---3-----------------------------

----------------------------------------------------------------------
-rel------------------------------------------------------------------
--5-P-3---5-3--5-P-3----------3-----------3---------------------------
--------5------------5--3--5-----5--3--5-----5--3---------------------
---------------------------------------------------5-4-3-1--3--1------
------------------------------------------------------------------3-1-

----------------------------------------------------------------------
------------1+1/2---F---1/2--rel--------------------------------------
------------(7)----(7)--(7)--(7)--7-6-5--5-P-3---5-(5)-3--------------
-----------------------------------------------5----F-----5-5-P-3-3-5-
-------1---------------------------------------------------------5----
-1-2-3---3------------------------------------------------------------

----------------------------------------------------------------------
----F--3---6-P-3--F---3--6-P-3--F--3--6-P-3--F--rel--------F----------
-5-(5)-----------(5)-----------(5)----------(5)--5--3-----(5)-5--3----
------------------------------------------------------5-3----------5--
----------------------------------------------------------------------
----------------------------------------------------------------------

----------------------------------------------------------------------
---F------------------------------------------------------------------
--(5)-5--3---5---3----------------------------------------------------
-----------5---5------------------------------------------------------
--------------------------1-----------1-----------1-----------1-------
--------------------1-2-3---3---1-2-3---3---1-2-3---3---1-2-3---3-----

==
----------------------------------------------------------------------
---F--1+1/2--2---2----rel.........------------------------------------
--(9)--(9)--(9)-(9)--(9)-9-9-9-9-9---9-8-7--5---5----5----5----5------
-------------------------------------------------7P5--7P5--7P5--7P5---
----------------------------------------------------7----7----7----7--
----------------------------------------------------------------------

----------------------------------------------------------------------
---
------F--rel----------------------------------------------------------
---
-5-7-(7)-(7)----------------------------------------------------------
---
-------------7-7-7-6-5--------------------F--rel------------------F-
rel--
-----------------------7-6-5-------3-H-5-(5)-(5)-3---------3-H-5-
(5)(5)-3
-----------------------------3-H-5-----------------5-3-H-5------------
---

----------------------------------------------------------------------
----------------------------------------------------------------------
----------------------------------------------------------------------
--------F-----------F-rel--------F-rel--------F---F-------F-rel-------
-----3-(5)~~~~~~---(5)(5)-3---3-(5)(5)-3---3-(5)-(5)~~~~~(5)(5)-3---3-
---5------------------------5------------5------------------------5---

----------------------------------------------------------------------
-------------------------------------------F-rel-------5H8P5--5H8P5---
--------------------------------------5-7-(7)(7)-5---5------7------7--
--F-rel----------------------5-----5H7-------------7------------------
-(5)(5)-3---3-----3H5P3-3H5/7-7P5-7-----------------------------------
----------5----3H5-----5----------------------------------------------

----------------5H8P5--5H8P5------------------------------------------
--5H8P5--5H8P5-------8------8-8P5--5H8P5---F-rel--------F-rel---------
-------7------7------------------7------7-(7)(7)-5---5-(7)(7)-5---5---
---------------------------------------------------7------------7-----
----------------------------------------------------------------------
----------------------------------------------------------------------

----------------------------------------------------------------------
-------8--(8)-8-(8)-8-(8)-8-------10--(10)-10-(10)-------6-(6)-6-(6)--
-7-(7)(7)-(7)(7)(7)(7)(7)(7)---(9)(9)--(9)-(9)-(9)---(5)(5)(5)(5)(5)--
----F-rel--F-rel-F-rel-F-rel----F-rel---F--rel--F-----F-rel-F-rel-F---
----------------------------------------------------------------------
----------------------------------------------------------------








Between the Wheels

From the CD 'Grace Under Pressure'
Written by Lee/Lifeson/Peart
Mercury/Polygram Records 818476-2

This song is in 'dropped-D' tuning [DADGBe] low to high. It is
in
the key of C. Mostly 4/4 time. This song sounds like it has some
chorus
or flange in the intro (guitar).

Jimmy Pena - jimmy@protected.olga.net

| = not a standard bar line; just used to separate music
~ = vibrato or held note
h = hammer on
p = pull off
s = slide
b = bend string up to indicated pitch/fret
r = release bend to indicated string/fret
/ = slide up from infinity
\ = slide down into infinity
<5> = natural harmonic (lightly touch the string at fret indicated)
[5] = artificial harmonic (use thumb to follow through the pick
attack)
o \_
o / repeat sign (always look for these!)


[Intro] - First measure played 3 times

(played on synth)
Dm7+6 Am
e:--7----7------5----5----|-----------|------------------------------|
B:--6----6------5----5----|-----------|------------------------------|
G:o-5----5------5----5---o|-----------|------------------------------|
D:o----------------------o|-----------|---\7-------------------------|
A:------------------------|-----------|------0-----------------------|
E:------------------------|--0~~~~~~--|--------0~~~~~~---------------|

e:---------------------------------------|---------------------------|
B:--------------------5---------6--------|---------------------------|
G:--4(b5)--4---2--------------------7~~~-|-4(b5)--4---2----<7>~~\----|
D:----------------5------5s7-------------|---------------5-----------|
A:---------------------------------------|---------------------------|
E:---------------------------------------|---------------------------|

e:----------------------------|---20~~--19--19(b22)~~~~-|------------|
B:----------------------------|-------------------------|------------|
G:--4(b5)--4--2--0------------|-------------------------|------------|
D:------------------0h2-------|-------------------------|---\7-------|
A:----------------------------|-------------------------|------0-----|
E:-----------------------0~~--|-------------------------|--------0~~~|
/\
vibrato bar dive 1/2 then 1 1/2 steps

[Riff 1] ---------------------------------
--
Dm7+6 Am/D |1. |2.
e:--10-10-10---10-10-10----10-10-10--|-10-10-10----|------------------
-|
B:--12-12-12---12-12-12----10-10-10--|-10-10-10----|------------------
-|
G:o-10-10-10---10-10-10-----9--9--9--|--9--9--9---o|------------------
-|
D:o----------------------------------|------------o|------------------
-|
A:-----------------------------------|-------------|------------------
-|
E:-----------------------------------|-------------|--3--5--0---------
-|

[Riff 2]
Dm7 Am/D C
e:------5----5---5---5------------5----5---5---5---------------3--3--|
B:------6----5---5---6------------6----5---5---6---------------3--3--|
G:------5----5---5---5------------5----5---5---5------5---5----5--5--|
D:------7----5---5---7------------7----5---5---7------5---5----------|
A:----------------------------------------------------3---3----------|
E:---0---------------------0--0-----------------------3---3----------|

G C Dm7
e:--3--3-----------------10-10-10-10-10------------------------------|
B:--3--3---5-------------10-10-10-10-10------------------------------|
G:--4--4---5-------------10-10-10-10-10------------------------------|
D:---------5---/10---------------------------------------------------|
A:-------------/10---12----------------------------------------------|
E:---------------------------------------3--2--0---------------------|

[Riff 3a]
Fsus2 Gsus2 Em F+4
e:-------------------------------------------------------------------|
B:--3-------3-------5-------------0-------0-------0-----0---0--------|
G:--5---------5-----7-------5--7--0-----0----0----2---2---2----------|
D:--5--5--------5---7----7--------2---2-----------3------------------|
A:--3-----3---------5-------------2---------------x------------------|
E:--3-----------------------------2---------------3-------------0----|

[Riff 3b]

e:-------3-------3---------------------------------------------------|
B:--3------------3-------5---------5------------0~-------------------|
G:--5-------5-------5----7---7-----5-----7------0~-------------------|
D:--5---------------5----7-----7----------------2~-------------------|
A:--3--------------------5----------------------2~-------------------|
E:--3---------------------------------------0---2~-------------------|

[Riff 4]

e:----------------|--------------------------------------------------|
B:----------------|--------------------------------------------------|
G:----------------|--------------------------------------------------|
D:----------------|---\7---------------------------------------------|
A:----------------|-------0------------------------------------------|
E:--0~~~~~~-------|----------0~~~~~~---------------------------------|

Song progression:

[Intro] x1

[Riff 1] x4 /w lyrics:

To live between a rock and a hard ....

[Riff 2] x1

[Riff 2] x3 /w lyrics:

You know how that rabbit feels, going under .....

[Riff 3a] x1

[Riff 3a] x3 /w lyrics:

Wheels can take you around. Wheels can ...

[Fill 1] x1 /w lyrics:

e:---------------------------------------------------1--0------------|
B:--3-------3-------5-------------0-------0-------0-------1--0-------|
G:--5---------5-----7-------5--7--0-----0----0----2-------------0----|
D:--5--5--------5---7----7--------2---2-----------3------------------|
A:--3-----3---------5-------------2---------------x------------------|
E:--3-----------------------------2---------------3------------------|

We can fall from rocket's red ....
another

[Riff 3b] x1 /w lyrics:

war, another ...

[Riff 4] x2 /w lyrics:

generation.

[Riff 1] x4 /w lyrics:

It slips between your hands like water....

[Riff 2] x1

[Riff 2] x3 /w lyrics:

You know how that rabbit feels, going ....
[Riff 3a] x1

[Riff 3a] x2 /w lyrics:

You can go from boom to bust, ....

[Fill 1] x1 /w lyrics:

e:---------------------------------------------------1--0------------|
B:--3-------3-------5-------------0-------0-------0-------3-1-0------|
G:--5---------5-----7-------5--7--0-----0----0----2-------------0----|
D:--5--5--------5---7----7--------2---2-----------3------------------|
A:--3-----3---------5-------------2---------------x------------------|
E:--3-----------------------------2---------------3------------------|

We can fall from rocket's red ....
another

[Riff 3b] x1 /w lyrics:

war, another wasteland ....

Start [Guitar Solo]

generation.

e:----------------------------12h15p12----12-------------------------|
B:----------<7>-----10~~~~~\-----------15----15(b17r15)p13h15~~~-----|
G:------<7>---------10~~~~~\-----------------------------------------|
D:--<7>--------------------------------------------------------------|
A:-------------------------------------------------------------------|
E:-------------------------------------------------------------------|

e:---------<15(b17)>---15(b17)~~-------------------------------------|
B:--13--15------------------------15(b17r15)--13--15-----------------|
G:----------------------------------------------------15(b17)~-------|
D:-------------------------------------------------------------------|
A:-------------------------------------------------------------------|
E:-------------------------------------------------------------------|

e:---------------------------------15(b17)~~~---15(b17)--15(b17r15)--|
B:----------8~~----8s10--7s5~~---------------------------------------|
G:-------5-----------------------------------------------------------|
D:--5s7--------------------------------------------------------------|
A:-------------------------------------------------------------------|
E:-------------------------------------------------------------------|

e:-15--12~~~----------15(b17r15)~~~----12----------------------------|
B:-------------15p13----------------------13-------------------------|
G:-------------------------------------------12~~~\------------------|
D:-------------------------------------------------------------------|
A:-------------------------------------------------------------------|
E:-------------------------------------------------------------------|

e:---------------------------------------------------------------5~--|
B:-------------5--6-------------------5--6--8-------------5-6-8------|
G:-------5--7-------------------5--7------------------5-7------------|
D:--5s7-----------------5s7--7--------------------5s7----------------|
A:-------------------------------------------------------------------|
E:-------------------------------------------------------------------|

e:-----8~--5~-8~---5~--8~--5-----------------------------------------|
B:----------------------------8~~-------------------5--6~---5h6p5----|
G:-----------------------------------5s7------5--7-------------------|
D:---------------------------------------5s7-------------------------|
A:-------------------------------------------------------------------|
E:-------------------------------------------------------------------|

e:----------------------------8---8--7--5----------------------------|
B:--------6s8---6--5----------------------8--6--5--------------------|
G:--7--5--------------7--5~~-----------------------7--5--4-----------|
D:----------------------------------------------------------7--5--3--|
A:-------------------------------------------------------------------|
E:-------------------------------------------------------------------|

e:--------------------------------------------7--7~--7~--------------|
B:-------------------------8~~-----8-----5--5----5~--5~--------------|
G:----------------------5------------7-------------------10s12--12---|
D:-----------------5s7-----------7-----------------------------------|
A:--7--5--3~~--------------------------------------------------------|
E:-------------------------------------------------------------------|
Fsus2(add D)
e:------12-----------------17-------20~~~----------------------------|
B:--10--10--10~------------15-------18~~~----------------------------|
G:---------------12----17------17---19~~~----------------------------|
D:-------------------------------------------------------------------|
A:-------------------------------------------------------------------|
E:-------------------------------------------------------------------|

[Riff 3a] x2 /w lyrics:

Wheels can take you ar...

[Fill 1] x1 /w lyrics:

e:----------------------------------------------------1--0-----------|
B:--3-------3-------5-------------0-------0-------0--------1--0------|
G:--5---------5-----7-------5--7--0-----0----0----2-------------0----|
D:--5--5--------5---7----7--------2---2-----------3------------------|
A:--3-----3---------5-------------2---------------x------------------|
E:--3-----------------------------2---------------3------------------|

From rocket's red glare down ....

[Riff 3b] x1 /w lyrics:

war, another ....

[Riff 4] x2 /w lyrics:

generation.

e:-------------------------------------------------------------------|
B:--------------------------5-------6--------6-----------------------|
G:--4(b5)---4(b5r4)--2----------------7~~~-------4(b5)--4--2---<7>\--|
D:----------------------5------5s7---------------------------5-------|
A:-------------------------------------------------------------------|
E:-------------------------------------------------------------------|

e:-------------------------------20~~~~---19---20(b22)~~~------------|
B:-------------------------------------------------------------------|
G:--4(b5)--4--2------------------------------------------------------|
D:---------------5--0h2-------------------------------------\7-------|
A:-------------------------------------------------------------7-----|
E:-----------------------0~~~------------------------------------0---|
/\
vib. bar dive

e:-----------------------------------------1-------------------------|
B:-----------------------5-------6-----------------------------------|
G:--4(b5)--4(b5r4)--2---------------7~~--------4-4-4-<4(b5b6r5r4)>---|
D:---------------------5----5s7--------------------------------------|
A:-------------------------------------------------------------------|
E:-------------------------------------------------------------------|

e:-----------------------------------------------------------20--19--|
B:-------------------------------------------------------------------|
G:--4--2---0h2p0------0----------4(b5)---4--2p0----------------------|
D:-----------------------------------------------0h2-----------------|
A:----------------5\----5\-------------------------------------------|
E:----------------------------------------------------0~~~-----------|
/\
vib. bar slight dive
e:-20(b22)~~~--------------------------------------------------------|
B:-----------------------------------5-------6--------------12-12-12-|
G:--------------------4(b5)--4--2---------------7~~----10---12-12-12-|
D:--------------------------------5-----5s7--------------------------|
A:-------------------------------------------------------------------|
E:---------------0---------------------------------------------------|

e:-------------------------------------------------------------------|
B:--12---------------------------------------------------------------|
G:--12-------------------------4(b5)---4--2--0-----------------------|
D:------<9>-<9>-<5>-----------------------------0h2---0~~------------|
A:----------------------------------------------------0~~------------|
E:------------------5\----0~~----------------------------------------|

e:--12---------------------------------------------------------------|
B:--12-----12--------------------------------------------------------|
G:---------12--------------------------------------------------------|
D:-----------------<9>\----------------------------------------------|
A:-------------------------------------------------------------------|
E:-------------------------------------------------------------------|




Big Money
from "Power Windows"

transcription by pat@protected.olga.net (Patrick M. Ryan)

performance notes:

Alex tunes his guitar up a full step for this song. This was
confirmed,
I believe, in an interview. The strings, from bottom to top, are
tuned to:
F#, B, E, A, C#, F#. One can still play this song with the standard
tuning but the harmonics in the solo sound sweeter (and are easier to
play) with the alternate tuning. Obviously, one can get the same
effect
with a capo on the 2nd fret.

This transcription assumes the alternate tuning. Most of the song
is just "power" chords. The fingered chord will appear first with
the real chord following it in parens. For instance, this first chord
of the song is a B played like an A. It will look like: A(B).

Harmonics appear on the staff in parens.

As with all tabs, we assume that the reader has heard the song and
can pick up the exact rhythms by ear.

Corrections/modifications to me,
pat@protected.olga.net (Patrick M. Ryan)


intro

A(B) D(E) A(B) D(E)
-0------2-3-2--------------0---------------2-3-2------------
-2------3-3-3--------------2---------------3-3-3------------
-2------2-2-2------0-------2---------------2-2-2-----0------o
-2------0-0-0----2---2-0---2---------------0-0-0---2---2-0--o
-0-------------------------0-------0-3-0--------------------
-------------------------------0-3--------------------------

A(B) (fast strum) D(E) C(D)
-2-3-2-------------0--------9----------------2-3-2---0----------------
-3-3-3-------------2-------10----------------3-3-3---1----------------
-2-2-2-----0-------2--------9----------------2-2-2---0----------------
-0-0-0---2---2-0---2--------7----------------0-0-0---2----------------
-------------------0--------------------------------------------------
----------------------------------------------------------------------

(muffle strings w/ palm)
-------------------------|-------------------------
-------------------------|-------------------------
-----0--------0-----0----|-----0-------0-----0----- repeat 4 times
-0-0---0-----------------|-0-0---0-----------------
---------3-3----------3--|---------3-3---------3---
----------------3-3------|---------------3-3-------



riff [A]
---------------------
---------------------
-----0-----0-----0---
-0-0-----------------
-------3-3-----------
-------------3-3-----


"Big money goes ...."

D(E) C(D) F(G) G(A) D(E) C(D) F(G) G(A)
------|------|------|------|------|------|------|------|
-7----|-5----|-6----|-8----|-7----|-5----|-6----|-8----|
-7----|-5----|-5----|-7----|-7----|-5----|-5----|-7----|
-7----|-5----|-3----|-5----|-7----|-5----|-3----|-5----|
-5----|-3----|------|------|-5----|-3----|------|------|
------|------|------|------|------|------|------|------|


"Big money pull a ....

(scuff chords)
A(B) G(A) C(D) D(E) A(B) G(A) C(D) D(E)
------|------|------|------|------|------|------|------|
------|------|-5----|-8-7--|------|------|-5----|-7----|
-6----|-4----|-5----|-7-7--|-6----|-4----|-5----|-7----|
-7----|-5----|-5----|-7-7--|-7----|-5----|-5----|-7----|
-7----|-5----|-3----|-5-5--|-7----|-5----|-3----|-5----|
-5----|-3----|------|------|-5----|-3----|------|------|


"Sometimes ..."

----------------------|----------------------|
----------------------|----------------------|
-----0-----0-----0----|-----0-----0-----0----|
-0-0---0--------------|-0-0---0--------------|
---------3---------3--|---------3---------3--|
-------------3-3------|-------------3-3------|

"It's the power and the glory..."

----------------------------------|----------------------------------|
---1---1---1---1---1---1---1---1--|---1---1---1---1---1---1---1---1--|
-0---0-------------------0---0----|-0---0-------------------0---0----|
---------3---3--------------------|---------3---3--------------------|
-----------------3---3------------|-----------------3---3------------|
----------------------------------|----------------------------------|

riff [A] once, then same structure for second verse



(after 2nd chorus)

riff [A] 4 times, then solo: (add a little flanger or chorus)

D(E) (let ring)
-2---3------|--------------------------------------------------------
-3---3------|-----------(12)-------------------(7)-------------------
-2---2------|---------------(12)----(12)----------(7)----------------
-0---0------|------(12)---------(12)--------(7)------(7)-------------
------------|-------------------------------------------(7)----------
------------|--------------------------------------------------------

~~~ ~~~~
-------------------------|----------------------12------------------
-(12)---------(7)--------|-------------------------12-13-12----12---
-----(12)--------(7)---9-|-5-7-7-5-7-5-5-7-5----------------14------
---------(12)------------|------------------------------------------
-------------------------|------------------------------------------
-------------------------|------------------------------------------

~~~ ~~~ ~~~ (feedback)
-15-15-14-12-----------------------------15----------------
--------------15-12-13-15----15---13_12--------------------
-----------------------------------------------------------
-----------------------------------------------------------
-----------------------------------------------------------
-----------------------------------------------------------

(up full step) ~~~~
------------------------------------15-----------------------
-15/-15/-15-13_15-13-12----12_13_15--------------------------
------------------------14-----------------14_12_11-12_11_9--
-------------------------------------------------------------
-------------------------------------------------------------
-------------------------------------------------------------

~~~~ ~~~~
------(7)------(7)---(7)--|------------------------------------------
--(7)-------(7)---(7)-----|------(12)--------(12)------(7)------(7)--
--------------------------|----------(12)----(12)---------(7)---(7)--
--------------------------|--(12)--------(12)-------(7)------(7)-----
--------------------------|------------------------------------------
--------------------------|------------------------------------------

E(F#) D(E) C(D)
----------------|------------------------------------------------
----------------|-9--9-9--7--7-7--6--6-6---7--7-7--9-9-9--7-7-7--
-5-5-5-9-7-5-9--|-9--9-9--7--7-7--6--6-6---7--7-7--9-9-9--7-7-7--
----------------|-9--9-9--7--7-7--6--6-6---7--7-7--9-9-9--7-7-7--
----------------|-7--7-7--5--5-5--4--4-4---5--5-5--7-7-7--5-5-5--
----------------|------------------------------------------------



--------------------|
--------------------|
--------------------|
------------4-5-7---|
------4-5-7---------|
--5-7---------------|

(chorus)
"It's the power & the glory, it's ....

etc....

"Big money got ....

(pause)

repeat riff [A] until fade-out


Broon's Bane


------0-----------0-----------0----------0---------------------------
3-------3-----------3-----------3----------3-------------------------
----3-----------3-----------2----------2-----------------------------
--0-----------0-----------0------0---0-------------------------------
----------0-1---------1------------0---------0-----------------------
3-----------------------2--------------------------------------------


------0-----------0-----------0-----------0--------------------------
--------3-----------3-----------2-----------3------------------------
----3-----------3-----------2-----------3----------------------------
--0-----------0-----------2-------2---3------------------------------
----------0-1---------0-0---------------------0----------------------
3-----------------------------------0--------------------------------


------0-----------0-----------0-----------0--------------------------
--------3-----------3-----------3-----------3------------------------
----3-----------3-----------2-----------2----------------------------
--0-----------0-----------0-------0---0-------0----------------------
----------0-1---------1-------------0--------------------------------
3-----------------------2--------------------------------------------


------0-----------0-----------0-----------1--------------------------
--------3-----------3---3-------3---3-------3---2--------------------
----3-----------3-----------3-----------1-------2--------------------
--0-----------0-----------3-----------3---------2--------------------
----------0-1---------0-0---------0-1---------0-0--------------------
3--------------------------------------------------------------------


5---5-----------5-----8-----8-7-5-----5------------------------------
6-6---6-------6---6-------5---------5--------------------------------
7-----------7-----------5---------5----------------------------------
0-------0-----------0-7-------6-7-------0----------------------------
----------0----------------------------------------------------------
---------------------------------------------------------------------


5-----5-----3-----3-----2-----2-----------2--------------------------
----4---4-------3---3-------3---3-----------3------------------------
--3-----------3-----------4-------------4----------------------------
----------5-5---------5---------------4------------------------------
3-----------------------2---------2-----------2----------------------
------------------------------------2--------------------------------


------1-----------1-----------0-----------0--------------------------
3-------3-----------3---2-------2---2-------2------------------------
----1-----------1-----------2-----------2----------------------------
--3-----------3-----------2-----------2------------------------------
1---------1-----------1-0---------0-----------0----------------------
------------1-----------------------0--------------------------------


------1-----------1-----------0-----------0-----------0-----------0--
3-------3-----------3---2-------2-----------2-----------3-----------3
----1-----------1-----------2-----------2-----------2-----------2----
--3-----------3-----------2-----------2-----------0-----------0------
1---------1-----------1-0---------0----------------------------------
------------1-----------------------3---------3-2---------2-1--------





















Rush - By-Tor & The Snow Dog

From the CD 'Fly By Night'
Written by Lee/Lifeson/Peart
Mercury/Polygram Records 822542-2

This tab is not 100% correct. Feel free to fix it. Standard
tuning [EADGBe] (low to high). The key signature is D, but it appears
to
change to E in the middle, then back to D at the Epilogue. Yes the tab
has gotten messier but I think it's also gotten more accurate.

Jimmy Pena - jimmy@protected.olga.net

| = not a standard bar line; just used to separate music
~ = vibrato or held note
x = percussive note with no pitch; muted note
h = hammer on
p = pull off
s = slide
b = bend string up to indicated pitch/fret
r = release bend to indicated string/fret
/ = slide up from infinity
\ = slide down into infinity

Chord legend:

G : [320033]
D : [xx0232]
A : [x0222x]
E : [022100]
C : [x3555x]
F : [133211]
B : [x2444x]
F/A : [x03211]

Progression:

[At the Tobes of Hades:]

G D A D D A D A
The tobes of Hades lit by ...

G D A D D A E
The nether world is ...

G D A D D A D A
Prince By-Tor takes the ...

G D A D D A E
The sign of Eth is ....

C F G F G D C F G
By-Tor, Knight of ....

F G D
devil's prince.


[Across the Styx:]

G D A D D A D A
Across the River Styx, ...

G D A D D A E
His Nemesis is ....

G D A D D A D A
The Snow Dog, ermine ....

G D A D D A E
Coal-black eyes ...

C F G F G D C F G
By-Tor, and the ....

F G D
Let the fray begin.

----

Here is part of the middle section. I put the time down so you
can figure out where I am.


1:11 1:17 1:23
E~ A B B G~ D E E E~ A B B G~ D E E A~

1:26 1:29 1:32 1:35 1:38
C G C G A~ C G C G D E D E C F/A C F/A

1:41 1:47
D B D B D B D B E~


[Guitar and effects for about 1:00]

Then there are a few E and D chords:

2:55 2:58 3:01 3:04
E D E D

G
e:---------------------------------------------------|
B:--------8-9\------8-9\------8-9-8------------------|
G:o-----7---------7---------7-------9-8-7-----------o|
D:o---9---------9---------9---------------9-7-6~~---o|
A:---------------------------------------------------|
E:---------------------------------------------------|

There is another part in here but I just can't figure it out.
It
sounds like the previous pattern but played higher up and with some
hammer-ons and pull-offs.

e:--------------------------------------------------------------|
B:--------------------------------------------------------------|
G:o-----5-6-7\-----5-6-7\----5-6-7-6-5-------------------------o|
D:o---7----------7---------7------------7-6-5------------------o|
A:--------------------------------------------7-6~--------------|
E:--------------------------------------------------------------|

e:--------------------------------------------------------------|
B:--------------------------------5--8--5-----------------------|
G:o-----5-6-7\-----5-6-7\----5-6-7---------7-6-5---------------o|
D:o---7----------7---------7---------------------7~------------o|
A:--------------------------------------------------------------|
E:--------------------------------------------------------------|

Stop and start E with drum fills:

e:-----------------------------------------------------------|
B:-----------------------------------------------------------|
G:o----9--9-----9--9--------9--9-----9--9-------------------o|
D:o----9--9-----9--9--------9--9-----9--9-------------------o|
A:-----7--7-----7--7--------7--7-----7--7--------------------|
E:--0--------0--------0--0--------0--------0-----------------|

Every note is gradually swelled via volume control:

e:--------------------------------------------------------------|
B:---8--10--13-----10~----8-10~--------8--10----8~--------------|
G:-7--------------------7---------7~----------7-----------------|
D:--------------------------------------------------------------|
A:--------------------------------------------------------------|
E:--------------------------------------------------------------|

e:-7--8---------------------------------------------------------|
B:---------8~------7~-------7~--8~------12~---10~---7~----------|
G:-------------7~------7~---6~--7~------14~------------6~--7~---|
D:--------------------------------------------------------------|
A:--------------------------------------------------------------|
E:---------------------------------(0)--------------------------|

e:-------|------------------------------------|
B:-7~----|------8~---7~-----------8~--7~------|
G:-------|o-9~--9~---7~--7~---9~--9~--7~-----o|
D:-------|o-9~-----------9~---9~-------------o|
A:-------|------------------------------------|
E:----0~-|-------------------------------0~---|

Full volume:

e:-------------10-----------------------------------------------|
B:-----10b12~~~~~~~~12r10----8-10-8--5~--8b10r8--5~-------------|
G:--------------------------------------------------------------|
D:--------------------------------------------------------------|
A:--------------------------------------------------------------|
E:--------------------------------------------------------------|

e:-----------10-11-12--15b17r15---10h12p10--12\---12--12--12\---|
B:-10-11-12-----------------------------------------------------|
G:--------------------------------------------------------------|
D:--------------------------------------------------------------|
A:--------------------------------------------------------------|
E:--------------------------------------------------------------|

e:-12--10---/17--15-12p11p10--12-12\--12--10--------------------|
B:-------------------------------------------12p11p10--9--------|
G:-------------------------------------------------------12-----|
D:--------------------------------------------------------------|
A:--------------------------------------------------------------|
E:--------------------------------------------------------------|

e:--------------------------------------------------------------|
B:------------------------------8-9-10-10-10-8\-----------------|
G:-7-8-9--12--12b14r12s9\-----9---------------------------------|
D:--------------------------------------------------------------|
A:--------------------------------------------------------------|
E:--------------------------------------------------------------|

e:--------------------------------------------------------------|
B:-----8--10b12r10--10-10-10--10b12r10---8----------------------|
G:-7-9--------------------------------------9-------------------|
D:-----------------------------------------------7--5\----------|
A:--------------------------------------------------------------|
E:--------------------------------------------------------------|

e:--------------------------------------------------------------|
B:--------------------------------------------------------------|
G:-----------------8---8h9~--9--9h11--11b12---11b12---11b12-----|
D:---5-5-5h7-7-7s9----------------------------------------------|
A:-7------------------------------------------------------------|
E:--------------------------------------------------------------|

e:------------------------------------------------------------------|
B:------------------------10-10--------------9h10p9--9h10p9--9h10p9-|
G:-11b12p9----9-11-11--11-------9h11--9-7-7\------------------------|
D:------------------------------------------------------------------|
A:------------------------------------------------------------------|
E:------------------------------------------------------------------|

e:-15b16---13--10h12p10--------------10-------------------------|
B:-----------------------8~---10b12~~~~~~12r10-----10b12~~~-----|
G:--------------------------------------------------------------|
D:--------------------------------------------------------------|
A:--------------------------------------------------------------|
E:--------------------------------------------------------------|

e:--------------------------------------------------------------|
B:-10-8-10-10---5---5--8\---------------------------------------|
G:----------------8---------------------------------------------|
D:--------------------------------------------------------------|
A:--------------------------------------------------------------|
E:--------------------------------------------------------------|

Then play:

e:----------------------------------------|--------------------------|
B:----------------------------------------|--------------------------|
G:----------------------------------------|--------------------------|
D:--5-5-6-7---5-5-6-7---5-5-6-7-6-5-------|--5-5-6-7---5-5-6-7-------|
A:----------------------------------7~----|--------------------------|
E:----------------------------------------|--------------------------|

e:-------------------------------------------------------------------|
B:-------------------------------------------------------------------|
G:-------------------------------------------------------------------|
D:--5-5-6-7-6-5-6-5--------------------------------------------------|
A:------------------7\-----------------------------------------------|
E:-------------------------------------------------------------------|


[Epilogue:]

G D A D D A D A
The battle's over and the ...

G D A D D A E
Disciples of the ...

G D A D D A D A
Rejoicing echoes as the ...

G D A D D A E
By-Tor in defeat ....

C F G F G D
Snow Dog is ...

C F G F G D
The land of the Overwo....,

F G D
is saved .....


F G D
e:------------------|---2---------------------------------------|
B:-------1-------3--|---3--------7------------------------------|
G:-----2-------4----|---2---or---7------------------------------|
D:---3-------5------|---0--------7------------------------------|
A:------------------|------------5------------------------------|
E:------------------|-------------------------------------------|

Repeat whole thing twice
Then repeat first half twice, then whole thing again one last time


Chemistry
Artist- Rush
Album- Signals


This song is heavily dominated by Geddy's keyboards, but Alex
retaliates with an awesome solo!
*********************************************************

Fig. 1 (Play 2x)
-------------------------------------------------------|
-7--7--7--7--5--5--5--5-------------------5--5--5--5-|
-7--7--7--7--5--5--5--5--9--7----------7--5--5--5--5-|
-7--7--7--7--5--5--5--5-------10--9-10----5--5--5--5-|
-5--5--5--5--3--3--3--3-------------------3--3--3--3--|
--------------------------------------------------------|

Fig. 2 (Play 2x)
Second time includes overdub:
-------------------------------------------------------|
-7--7--7--7--5--5--5--5-------------------5--5--5--5-|
-7--7--7--7--5--5--5--5-------------------5--5--5--5-|
-7--7--7--7--5--5--5--5-------------------5--5--5--5-|
-5--5--5--5--3--3--3--3--7--5---------7---3--3--3--3-|
--------------------------------8--7-8-------------------|

Approximation of overdub- w/delay
_
--13-12----------13-12---------13-12--13-12----------13-12-13--|
--------15-13-12------15-13-12------15------15-13-12-----------|
------------------------------------------------------------------|
------------------------------------------------------------------|
------------------------------------------------------------------|
------------------------------------------------------------------|

Fig. 3 (2x) Approximation
-----
D DD D CCC D CDC
CD D DDC D D\C
GG G FF A F
D DD D D\C/ E# E# E# E#

Fig. 4 (10x)
-----
D D D D

Fig. 2 (2x) Second time with overdub
Fig. 3 (2x)
Fig. 4 (10x)

Pre-solo---
*Solo
----------------------------------------------------------------|
-7--7--7--7--5--5--5--5----------------------------------------|
-7--7--7--7--5--5--5--5--------------------------------/12-10-|
-7--7--7--7--5--5--5--5--------------------------12-10\-------|
-5--5--5--5--3--3--3--3--7--5---------7----/10-8--------------|
--------------------------------8--7-8----8\-------------------|

[------A.H.------]
---------15--------13-12---------------|
--15-13-----13~\---------15-13--------|
--------------------------------12~\---|
----------------------------------------|
----------------------------------------|
----------------------------------------|

[-------------------Artificial Harmonics------------------]
_ _
--13-12-10---12-----_--_-------------_---_---------------|
-----------13------15-13-12-13-15--12-13-12---12-13-----|
----------------------------------------------14------14Ã-|
-----------------------------------------------------------|
-----------------------------------------------------------|
-----------------------------------------------------------|

-19Ã(19)-17-19Ã--19Ã(19)------------------------------------------|
--------------------------18-20Ã\---17Ã(17)---17~--17Ã(17)-13-15~|
---------------------------------------------17---------------------|
--------------------------------------------------------------------|
--------------------------------------------------------------------|
--------------------------------------------------------------------|

--------13-12~---------13-12~----------13-12------------|
--13-15----------13-15-----------13-15-------13--13-15--|
-------------------------------------------------12-------|
----------------------------------------------------------|
----------------------------------------------------------|
----------------------------------------------------------|
_ _
--13-12-13-12--_--_--------------------------------------|
--------------15-13-12----------_--_----_-_---_-_--------|
-----------------------14\12--11-12-11\5-7-5\4-5-4--_----|
-----------------------------------------------------7-5---|
--------------------------------------------------------7--|
-----------------------------------------------------------|

[------A.H.----------]
[ A.H. ]
------------------------------------------------------------|
--_-_------_-_----------15Ã-15--13--12-13-15--12-13------|
-4-5-4--_-5-7-5\2/4~---------------------------------14---|
-------7-5--------------------------------------------------|
------------------------------------------------------------|
------------------------------------------------------------|

[A.H] [ A.H. ]
----------------------------------|
--12-13--------------------------|
-----------10--10--10--12Ã~~~\--| End Solo
----------------------------------|
----------------------------------|
----------------------------------|

------------------------------------------------------|
-7--7--7--7--5--5--5--5-------------------------5----|
-7--7--7--7--5--5--5--5--9--7-------------7\----5---|
-7--7--7--7--5--5--5--5--------10---9-10--------5---|
-5--5--5--5--3--3--3--3--------------------------3---|
------------------------------------------------------|

KEY:

A.H. -Artificial Harmonics
~ -Vibrato
à -Full Bend
_ -Hammer On or Pull Off
\ -Slide Down
/ -Slide Up
*********************************************************













Rush - Cinderella Man

From the CD 'A Farewell To Kings'
Written by Lee/Lifeson/Peart
Mercury/Polygram Records 822546-2

This song is in D.

Jimmy Pena - jimmy@protected.olga.net

| = not a standard bar line; just used to separate music
~ = vibrato or held note
x = percussive note with no pitch; muted note
h = hammer on
p = pull off
s = slide
b = bend string up to indicated pitch/fret
r = release bend to indicated string/fret
/ = slide up from infinity
\ = slide down into infinity
o \_
o / repeat sign (always look for these!)
[x35553] = fret box; this is a C chord - this is the same as standard
tablature, only turned on its side. Tilt your head clockwise to
read.


Chords used:

G/D : [xx0787]
D : [xx0232]
G : [320033]
C/G : [3x2010]
C/D : [xx0010]
CaddD : [x32030]


[Riff 1] *this part only played first time*
(is this alternate picking or a delay?)
e:---------------------|---------------------------------------------|
B:---------------------|---------------------------------------------|
G:---------------------|---------------------------------------------|
D:-----------5--4------|-----------------5-5--4-4--------------------|
A:--2--4--5--------5---|--2-2--4-4--5-5------------5-5---------------|
E:---------------------|---------------------------------------------|

[Riff 2]
A D/A Dsus4/A
e:-------------2~-------2~-------3~----------------------------------|
B:----2~-------3~-------3~-------3~----------------------------------|
G:----2~-------2~-------2~-------2~----------------------------------|
D:----2~-------0~-------0~-------0~----------------------------------|
A:----0~-------0~-------0~-------0~----------------------------------|
E:-------------------------------------------------------------------|

[Riff 3]
A D G
e:----------2~------------------3-3-----------------3-3--------------|
B:---2~-----3~------------------3-3-----------------3-3--------------|
G:---2~-----2~------------------0-0-----------------0-0--------------|
D:---2~-----0~------------------0-0-----------------0-0--------------|
A:---0~-----------4-5-4---------2-2---4-5-4---------2-2--------------|
E:----------------------5-3~----3-3---------5-3~----3-3--------------|

[Riff 4] - on acoustic guitar

____________________________________________________
A |1. G6 D/F# |2. G6 D/F#
e:--0--0-0-0-0-0-0-0-|----0--0-0-----------------|---0-0-0-----0-0-0--
--|
B:--2--2-2-2-2-2-2-2-|----3--3-3---3--3-3-3-3-3--|---3-3-3-3-3-3-3-3-
3-3|
G:o-2--2-2-2-2-2-2-2-|----0--0-0---2--2-2-2-2-2-o|---0-0-0-2-2-0-0-0-
2-2|
D:o-2--2-2-2-2-2-2-2-|----0--0-0---0--0-0-0-0-0-o|---0-0-0-0-0-0-0-0-
0-0|
A:--0--0-0-0-0-0-0-0-|----x--x-x---x--x-x-x-x-x--|---x-x-x-x-x-x-x-x-
x-x|
E:-------------------|----3--3-3---2--2-2-2-2-2--|---3-3-3-2-2-3-3-3-
2-2|

[Riff 5] - Freely
D A Bm E
e:--2---2-2-2-2----0------0----------2----------0--------------------|
B:--3--------------2--2-3------------3----3--3----3-2----0~----------|
G:--2--------------2-----------------4----------------4--1~----------|
D:--0--------------2-----------------4-------------------2~---2~-----|
A:-----------------0-----------------2-------------------2~---2~-----|
E:-------------------------------------------------------0~---0~-----|
Am G
e:-------------------------------------------------------------------|
B:--1--1---1---3--1---0--------3--0--0-------------------------------|
G:--2-------------------2--0~----------------------------------------|
D:--2----------------------------------------------------------------|
A:--0----------------------------------------------------------------|
E:-------------------------------------------------------------------|

[Riff 6]
A G D/F#
e:----------3-3-3-3-3-3-3-3-3----------------------------------------|
B:-----2----3-3-3-3-3-3-3-3-3--3-------------------------------------|
G:-----2----0-0-0-0-0-0-0-0-0--2-------------------------------------|
D:-----2----0-0-0-0-0-0-0-0-0--0-------------------------------------|
A:-----0----2-2-2-2-2-2-2-2-2--x-------------------------------------|
E:----------3-3-3-3-3-3-3-3-3--2-------------------------------------|

[Riff 7] - Freely (that means I'm not sure exactly how it goes)
A D E G
e:-------------------------------------------------------------------|
B:-----2---2--2h3---3-3--2--------7---7--7h8--8-8--7-----------------|
G:------------2-----2-2--2---------------7----7-7--7-----------------|
D:-------2----2h4---4-4--2------0---7----7h9--9-9--7-----------------|
A:---0---------------------------------------------------------------|
E:-------------------------------------------------------------------|

Progression:

[Riff 1] x1
[Riff 2] x3
[Riff 3] x1

[Riff 4] x2 /w lyrics:

A modest man from Mandrake travelled ...
G/D D D C/G C/G C/G G G
Because he was human, ...
G/D D D C/G C/G C/G G/D
Because he was moral ...
G/D D D C/G C/G G G
Delusions of grandeur, visions ...
G/D D C/G C/G G/D
A manic depressive, he ....

G/D D C/D D G/D D D C/D D CaddD
Eyes wide o.....

[Riff 5] x1 /w lyrics:
D A Bm E
Cinderella man ....
Am G
They can't ..... [Riff 1] x1

[Riff 6] x1

[Riff 5] x1 /w lyrics:
D A Bm
Cinderella man ...
Am G
Try as they might they cannot ..... [Riff 1] x1

[Riff 2] x3
[Riff 3] x1

[Riff 4] x2 /w lyrics:

In the betrayal of his love he ....

G/D D D C/G C/G C/G G G
He held up his riches to ....
G/D D D C/G C/G G/D
Purposeful motion for one so ....
G/D D D C/G C/G G
They tried to fight him....
G/D D C/G C/G G/D
This manic ...

[Riff 7] x1

[Guitar Solo] over [Riff 7] - another solo bites the dust


[Riff 5] x1 /w lyrics:
D A Bm E
Cinderella man doing ...
Am G
They can't understan....[Riff 1] x1

[Riff 6] x1

[Riff 5] x1 /w lyrics:
D A Bm
Cinderella man hang ....
Am G
Try as they might ....[Riff 1] x1

[Outro]:

A G A
e:------------------------3-3------------------|---------------------|
B:--2--2--2---------------3-3------------------|-2--2--2-------------|
G:o-2--2--2---------------0-0-----------------o|-2--2--2-------------|
D:o-2--2--2---------------0-0--------5-4------o|-2--2--2-------------|
A:--0--0--0-4-4-5-4-------2-2--2-4-5-----5-----|-0--0--0--4-4-5-4----|
E:------------------5-3~--3-3------------------|------------------5--|
sus2
G G/D D C/D D G/D D C/D Dsus4/A D
e:------3-3----------------3-3--|---7--2--0--2--7--2-2--0---|--3---2~-
-|
B:------3-3----------------3-3--|---8--3--1--3--8--3-3--1---|--3---3~-
-|
G:------0-0----------------0-0--|o--7--2--0--2--7--2-2--0--o|--2---2~-
-|
D:------0-0----------------0-0--|o--0--0--0--0--0--0-0--0--o|--2---0~-
-|
A:------2-2--4-4-5-4-------2-2--|---------------------------|--0------
-|
E:--3~--3-3----------5-3~--3-3--|---------------------------|---------
-|


Rush - Closer to the Heart

From the CD 'A Farewell to Kings'
Written by Lee/Lifeson/Peart/Talbot
Mercury/Polygram Records 822546-2

This song has been tabbed by so many people, that it would be
a
waste to name them all. It has also appeared (in whole and in part) in
several guitar magazines. The key is A, but it switches to D for the
solo. Standard tuning [EADGBe] (low to high). The guitars during the
verses are doubled, electric and acoustic.

Jimmy Pena - jimmy@protected.olga.net

| = not a standard bar line; just used to separate music
~ = vibrato or held note
h = hammer on
p = pull off
s = slide
b = bend string up to indicated pitch/fret
r = release bend to indicated string/fret
/ = slide up from infinity
\ = slide down into infinity
o \_
o / repeat sign (always look for these!)

Chord legend:

A : [xx7765]
G : [xx5543]
D : [xx0232]
A5 : [x022xx]


[Intro] - played on an acoustic 12-string

A(add9)
e:-5------7-------4-------5--5-----4------------------------------|
B:---0------0-------0----------------7--5-------------------------|
G:-----6------6-------6--------6----------6-----------------------|
D:----------------------------------------------------------------|
A:----------------------------------------------------------------|
E:----------------------------------------------------------------|

Repeat 3 times:

e:---5------7------4------5------4-----------------------------------|
B:-----0------0------0------0------7--5------------------------------|
G:o-------------6------6------6---------6---------------------------o|
D:o------7----------------------------------------------------------o|
A:-------------------------------------------------------------------|
E:-------------------------------------------------------------------|

[Riff 1]
G D(add9) Fmaj7
e:-------0------------0------------0------------------------------|
B:-----3---3--------3---3--------1---1----------------------------|
G:---4------------2------------2---------2------------------------|
D:-5--------5s4-4--------4s3-3-----------3------------------------|
A:----------------------------------------------------------------|
E:----------------------------------------------------------------|
Asus2 Asus4 A
e:---------------------0------------------------------------------|
B:--0--3--2---2----0h2-------0--3--2------------------------------|
G:--2--2--2------------------2--2--2------------------------------|
D:--2--2--2-----2------------2--2--2------------------------------|
A:--0--0--0------------------0--0--0------------------------------|
E:----------------------------------------------------------------|

[Riff 2] - bells arr. for guitar (don't play if your drummer has these
bells!)

e:--10~------------------------10~--------------------------------|
B:-------10---8~--7---8---10--------10---8~-----------------------|
G:--11~------------------------11~--------------------------------|
D:-------11---9~--7---9---11--------11---9~-----------------------|
A:----------------------------------------------------------------|
E:----------------------------------------------------------------|

Song progression:

[Intro] x1 (repeat second measure 3 times)

[Riff 1] x1

(This part is played on a 6-string acoustic)

A G D G A
And the men who hold high places ....
e:--------3-----------|
A G D A5 G B:------3---3---------|
to mold a new reality ....... G:----0---------------|
D:--0-----------------|
D A5 G [arpeggate as shown:] A:--------------------|
Closer to the ..... E:--------------------|

A G D G A
The blacksmith and the artist ...

A G D A5 G [arpeggate as shown
above]
They forge their creativity ....

D A5 G
Closer to ....

[Riff 2] x1

(Now the 6-string acoustic is joined by a 6-string electric)

A G D G A
Philosophers and plowme....

A A G G D A G G
to sow a new menta.....

D A5 G G D A5 G
Closer to the heart. ....

(Rhythm during solo is: strum D G C A at 4/4 time, changing chords
each
measure)

[Guitar Solo]

e:--10b12~~-----10~~----8~----------------7---9-10--9-10-12-------|
B:--10b12~~-----10~~----8~------7--8--10------7-8-----------------|
G:----------------------9~------7--7--7---------------------------|
D:----------------------------------------------------------------|
A:----------------------------------------------------------------|
E:----------------------------------------------------------------|

e:-10-12-14--12-14-15--12-14-15--14-15-17--17b19~---17b19---------|
B:----------------------------------------------------------------|
G:----------------------------------------------------------------|
D:----------------------------------------------------------------|
A:----------------------------------------------------------------|
E:----------------------------------------------------------------|

e:-17b19---17b19r17--12-14-15---15b17---15b16---15b17~------------|
B:----------------------------------------------------------------|
G:----------------------------------------------------------------|
D:----------------------------------------------------------------|
A:----------------------------------------------------------------|
E:----------------------------------------------------------------|

e:-------------------------------------------15-14-15-14-15-14-15-14-|
B:-15b17r15--15~-15~---17b19r17--17~-17~-----15-14-15-14-15-14-15-14-|
G:-------------------------------------------------------------------|
D:-------------------------------------------------------------------|
A:-------------------------------------------------------------------|
E:-------------------------------------------------------------------|

e:-15b17~-17-17~-----------10-------------------------------------|
B:-15b17~-17-17~---10b12---10---10b12r10---7s8s7------------------|
G:------------------9b11---------9b11r9----6s7s6----9--7--9b10----|
D:--------------------------------------------------9--7--9b10----|
A:----------------------------------------------------------------|
E:----------------------------------------------------------------|

e:-------------------------------------------------------------|
B:------------------------------------------------3-3--3-3-2---|
G:--7~-----4p0---2--2--4b5--4b5~--4~---4b5r4------2-2--2-2-2---|
D:--7~-----4p0---2--2--4b5--4b5~--4~---4b5r4-------------------|
A:-------------------------------------------------------------|
E:-------------------------------------------------------------|

e:-4s5----------------------------------------------------------|
B:-4s5----------------------------------------------------------|
G:-5s6----------------------------------------------------------|
D:--------------------------------------------------------------|
A:--------------------------------------------------------------|
E:--------------------------------------------------------------|

[Intro] x1 (repeat second measure 3 times)

A5 A5 G G D G A5 A5 A5
Woah you can be the ....

A5 A5 G G D A5 G G G
sailing into destiny ....

D A5 G G G
Closer to ...

D A5 G
Well closer ....

G G
Oh yeah

(Rhythm guitar plays D/A5/G pattern as above)

[bend 3/5 and strike repeatedly as below]
Closer to the ....

[bend 3/5 etc]
Closer to ....

[bend 7/9 and strike repeatedly as below]
I said closer ....

[bend 15/17 and strike repeatedly as below] (begin fadeout)
Well closer ....

[bend 15/17 etc]
Yeah closer ....

[bend 17/20 and strike repeatedly as below]
Closer to ....

Whoa ...

e:--------------------------------------17b19~------------|
B:--3b5~----------7b9~-------15b17~-----20b22~------------|
G:--5b7~----------9b11~------17b19~-----------------------|
D:--------------------------------------------------------|
A:--------------------------------------------------------|
E:--------------------------------------------------------|


Cold Fire
Extremely brief version of Cold Fire, off of _Counterparts_
Transcribed in Guitar for the Practicing Musician (2/94???)
Tony Zimmermann <anthonyz@protected.olga.net>

8 16th's
----x--|----3---3----3--2--0---|---3--3--------------------------
----x--|----3---3----3--3--3---|---3--3--------------------------
----x--|----2---2----2--2--2---|---2--2----5-H-7--5--------------
----x--|----2---2--------------|---2--2----5-H-7--5--------------
----x--|----0---0--------------|---0--0--------------------------
----x--|----0---0--------------|---0--0--------------------------

Verses based on Fsus2 and Am(V)
----------|----------------5-------------------------------------
----------|----------5-------------------------------------------
-------0--|-------5-----5----------------------------------------
-----3----|----7-------------------------------------------------
---3------|------------------------------------------------------
-1--------|--5---------------------------------------------------

Chorus based on Fsus2, G, and Am7
----------------|---------------|--------------------------------
----------------|---------------|--------------------------------
-----------0----|-----------0---|------------0-------------------
--------3-------|--------5------|---------7----------------------
-----3----------|-----5---------|------7-------------------------
--1-------------|---3-----------|---5----------------------------


CUT TO THE CHASE
Rush - from the album "Counterparts"
Transcribed by Luis Loyo (lloyo@protected.olga.net)

Intro Verse
|--------------------|----------------------|--------------------|
|--0---0---0----0----|---0---0---0-----0----|---0---0---0-----0--|
|------------------*-|----------------------|--------------------|
|2---2---2--2-2----*-|-2---2---2---2-2------|-2---2---2---2-2----|
|--------------------|----------------------|--------------------|
|--------------------|----------------------|--------------------|
Repeat twice
It is the fire that lights ....

|--------------------|----------------------|--------------------|
|---3---3---3-----3--|---3---3---3-----3----|--------------------|
|--------------------|----------------------|---2---2---2-----2--|
|-5---5---5---5-5----|-5---5---5---5-5------|--------------------|
|--------------------|----------------------|-0---0---0---0-0----|
|--------------------|----------------------|--------------------|
burns with a restless ....

|--------------------|----------------------|--------------------|
|--------------------|---0---0---0-----0----|---0---0---0-----0--|
|---2---2---2-----2--|----------------------|--------------------|
|--------------------|-2---2---2---2-2------|-2---2---2---2-2----|
|-0---0---0---0-0----|----------------------|--------------------|
|--------------------|----------------------|--------------------|
the archer must be sure of ....

(Repeat verse figure)
engine that ....

Bridge
|--------------------|----------------------|--------------------|
|---3---3---3-----3--|----------------------|---0---0---0-----0--|
|--------------------|---2---2---2------2---|--------------------|
|-5---5---5---5-5----|----------------------|-2---2---2---2-2----|
|--------------------|-0---0---0---0-0------|--------------------|
|--------------------|----------------------|--------------------|
Can't stop - moving Can't ....

Chorus
(Figure 1)
|-------------------|-----------------------------|-------------------
---------|
|---0---0---0-----0-|-----------------------------|-------------------
---------|
|-------------------|-----------------------------|-------------------
------4-4|
|-2---2---2---2-2---|-5/7-7-7-7--5-5/7-7-7-7--5-5-|-5/7-7-7-7--5-5/7-
7-7-7--4-4|
|-------------------|-5/7-7-7-7--5-5/7-7-7-7--5-5-|-5/7-7-7-7--5-5/7-
7-7-7--2-2|
|-------------------|-3/5-5-5-5--3-3/5-5-5-5--3-3-|-3/5-5-5-5--3-3/5-
5-5-5-----|
Can't stop!

(Figure 2)
|-----------------------------|-----------------------------|
|-----------------------------|-----------------------------|
|-4/6-6-6-6--4-4/6-6-6-6--4-4-|-4/6-6-6-6--4-4/6-6-6-6------|
|-4/6-6-6-6--4-4/6-6-6-6--4-4-|-4/6-6-6-6--4-4/6-6-6-6--2-2-|
|-2/4-4-4-4--2-2/4-4-4-4--2-2-|-2/4-4-4-4--2-2/4-4-4-4--2-2-|
|-----------------------------|-------------------------0-0-|
You ....

(Figure 3)
|-----------------------------|-----------------------------|
|-----------------------------|-----------------------------|
|-----------------------------|-----------------------------|
|-2/4-4-4-4--2-2/4-4-4-4--2-2-|-2/4-4-4-4--2-2/4-4-4-4--2-2-|
|-2/4-4-4-4--2-2/4-4-4-4--2-2-|-2/4-4-4-4--2-2/4-4-4-4--2-2-|
|-0/2-2-2-2--0-0/2-2-2-2--0-0-|-0/2-2-2-2--0-0/2-2-2-2--0-0-|
right, it's all a waste ....

*In the chorus, repeat the figures 1,2 and 3 as follows*

(Fig. 2)
guess that's just a chance ....
(Fig. 1)
a danger I'm prepared to ...
(Fig. 2)
chase, just the
(Fig. 1)
danger I'm prepared ....
(Fig. 2)
chase

*Play Intro and repeat verse figure with this lyrics*

It is the rocket that .....

* Play bridge figure *

Can't stop - .....

(Fig. 2)
... You may be
(Fig. 3)
right, It's all ....
(Fig. 2)
I guess that's just a ...
(Fig. 1)
A danger I'm prepared to ....
(Fig. 2)
chase, just the
(Fig. 1)
danger I'm prepared to ....
(Fig. 2)
chase

*Pre-solo : play intro once*
*Solo : play verse figure once and bridge figure*

Verse 2 (or whatever you call it)
|-----------------------------|-----------------------------|
|-----------------------------|-----------------------------|
|-----------------------------|-----5------7----------------|
|-7---------------------------|-----5------7----------------|
|-7---------------------------|-----3------5----------------|
|-5---------------------------|-----------------------------|
Yong enough not to care too ....

|--------------------|--------------------|
|--------------------|--------------------|
|---------------5----|---------------5----|
|-----7---7-5-7---7--|-----7---7-5-7---7--|
|--------------------|--------------------|
|-5-5---5------------|-5-5---5------------|
used to be I'm

|-----------------------------|-----------------------------|
|-----------------------------|-----------------------------|
|-----------------------------|----5-----7-7-7--------------|
|-7---------------------------|----5-----7-7-7--------------|
|-7---------------------------|----3-----5-5-5--------------|
|-5---------------------------|-----------------------------|
young enough to remember the ....

|--------------------|--------------------|
|--------------------|--------------------|
|---------------5----|---------------5----|
|-----7---7-5-7---7--|-----7---7-5-7---7--|
|--------------------|--------------------|
|-5-5---5------------|-5-5---5------------|
claim on ....

|-----------------------------|-----------------------------|
|-----------------------------|-----------------------------|
|-----------------------------|-----------------------------|
|-2---------------------------|----5-5-5-7------------------|
|-2---------------------------|----5-5-5-7-------------7\---|
|-0---------------------------|----3-3-3-5------------------|
old enough not to care ....

|--------------------|--------------------|
|--------------------|--------------------|
|--------------------|--------------------|
|-----2---2-0-2-5-2--|-----2---2-0-2-5-2--|
|--------------------|--------------------|
|-0-0---0------------|-0-0---0------------|
think of ...

|-----------------------------|-----------------------------|
|-----------------------------|-----------------------------|
|-----------------------------|-----------------------------|
|-2---------------------------|----5-5-5-7------------------|
|-2---------------------------|----5-5-5-7-------------7\---|
|-0---------------------------|----3-3-3-5------------------|
young enogh to .....

|--------------------|--------------------|
|--------------------|--------------------|
|--------------------|--------------------|
|-----2---2-0-2-5-2--|-----2---2-0-2-5-2--|
|--------------------|--------------------|
|-0-0---0------------|-0-0---0------------|
ought to be


Cut - Cut - Cut!

Cut to the

(Fig. 2)
chase, you ....
(Fig. 3)
right, it's all a was....
(Fig. 2)
I guess that's just a ....
(Fig. 1)
a danger I'm prepared .....
(Fig. 2)
chase, what ....
(Fig. 1)
difference can one ....
(Fig. 2)
chase, you ...
(Fig. 3)
right, it's all ....
(Fig. 2)
I guess that's just a chance ...
(Fig. 1)
a danger I'm prepared ....
(Fig. 2)
chase, what ....
(Fig. 1)
difference can one ....
(Fig. 2)
Chase


Date: Mon, 9 Jan 2006 15:37:08 -0500
From: Sleight Ofhand <SleightOfHand765@protected.olga.net>
Subject: r/rush/

cygnus_x-1.tab


< > indicates artificial harmonics.
[Guitar solo] with wah-wah effect (6:39)

e:-<20>~~--------------------------------<18>b(20)--------------------
|
B:---------18-16-15---------------------------------18~~/-------------
|
G:-------------------<17>-<15>-13~------------------------------------
|
D:--------------------------------------------------------------------
|
A:--------------------------------------------------------------------
|
E:--------------------------------------------------------------------
|

|Gradual bend full|
e:--------------------------------------------------------------------
|
B:-------------------------------------------------<16>b(17)----<18>~-
|
G:-12-14-15-15-16-16-17-17-17-17-17b(19)r17~~---------------<17>------
|
D:--------------------------------------------------------------------
|
A:--------------------------------------------------------------------
|
E:--------------------------------------------------------------------
|

e:---------------------------13---------------------------------------
|
B:-15----15-----------------------------------------------------------
|
G:----17----17~~/------12-12----12----15b(17)----14-------------------
|
D:---------------------------------13---------13----13b(15)-13~~------
|
A:--------------------------------------------------------------------
|
E:--------------------------------------------------------------------
|

e:--------------------------------------------------------------------
|
B:--------------------------------------------------------------------
|
G:---------------------0~~-p12(14)~~~---------------------------------
|
D:-13/15/13-13/12-10--------------------------------------------------
|
A:--------------------------------------------------------------------
|
E:--------------------------------------------------------------------
|

this little part comes in after the fill:
e:-------13b(15)~---17b(18)~~-----|
B:--------------------------------|
G:-12~----------------------------|
D:--------------------------------|
A:--------------------------------|
E:--------------------------------|
hope this works out better, sorry for the mistake .



Different Strings
by Rush

Intro:
------

Riff1: 2x
|------------------|-0----------------|
3|-1--------3-------|------------------|
|-------0--------0-|------------------|
|----2--------4----|------------------|
4|-0--------0-------|-0----------------|
|------------------|------------------|

Riff2:
|----------0-------------|----------0-------------|
4|-------------0----------|-------------0----------|
|-------5--------------5-|-------5--------------5-|
|----7--------------7----|----7--------------7----|
4|-0--------------7-------|-5--------------5-------|
|------------------------|------------------------|

|------------------------|----------0-------------|
|----------0-------------|-------------0----------|
|-------0----------------|-------5--------------5-|
|----0-----------0-----0-|----7--------------7----|
|------------------------|-5--------------5-------|
|-8-----------7-----8----|------------------------|

who's..
Verse 1:
--------

Riff2:
who's come to slay the dragon....

Riff2:
making arrows out of ....

Riff3:
Bm11 F
|----------0-------------|-1--------1-------------|
4|-2--------------2-------|----1-----------1-------|
|-------2-----------2----|-------------------2----|
|----0-------------------|-------3----------------|
4|-2----------------------|-3----------------------|
|------------------------|------------------------|
Too much ....

Bm11 F G
|----------0-------------|-1--------1--3--------3-|
|-2--------------2-------|----1-----------3-------|
|-------2-----------2----|-------2-----------4----|
|----0-------------------|------------------------|
|-2----------------------|-3-----------5----------|
|------------------------|------------------------|
Too much con- tra- ...-

A
|-5----------------------|------------------------|
|-5--------5-------------|-------5----------------|
|-6--------------------6-|----------------6-------|
|----------------7-------|-------------7----------|
|-7----------------------|----7-------------------|
|------------------------|------------------------|
(softly...)
fusion

Riff3:
Peel away the ....


Chorus:
-------

C E
|------------------------|----------0-------------|
4|-1--------1--1----------|-------------0----------|
|-------0--------------0-|-------1--------------1-|
|----2--------------2----|----2--------------2----|
4|-3--------------3-------|-2--------------2-------|
|------------------------|------------------------|
All there really is....

Am F
|----------0----------| |-3-----0----------------| |-----------------
-|
7|-------------1-------|4|-------------3p-1-------|3|-1--------1------
-|
|-------2-------------| |-------------------2----| |----2--------2---
-|
|----2--------------2-| |------------------------| |-------3--------
3-|
8|-0--------------0----|4|------------------------|4|-3--------3------
-|
|---------------------| |------------------------| |-----------------
-|
two of us, and ....


______________________________________________________________________
__
|1.
| G G A
|------------------|
|------------------------|------------------------|
3|-3--------3x------|4|-3-----5--------5x------|-5--------5x-------5--
--|
|-4--------4x------|
|-4-----6--------6x------|-6--------6x-------6----|
|-5--------5x------|
|-5-----7--------7x------|-7--------7x-------7----|
4|-5--------5x------|4|-5-----7--------7x------|-7--------7x-------7--
--|
|------------------|
|------------------------|------------------------|
why we've ....
_______________________________________________
|2.
| E D
|------------------| |------------------------|
3|-0--------0-------|4|------------------------|
|-1--------1-------| |-2----------------------|
|-2--------2-------| |------------------------|
4|-2--------2-------|4|------------------------|
|------------------| |------------------------|
in ....

Bridge:
-------

Riff1: 2x

Riff2: 4x

Verse 2:
--------

Riff2:
What happened to our innocense....?

Riff2:
Along with our ....

Riff3:
Different eyes see ....

Riff3:
But there .....

Repeat chorus
-------------

















Distant early warning


Rush - Distant Early Warning

From the CD 'Grace Under Pressure'
Written by Lee/Lifeson/Peart
Mercury/Polygram Records 818476-2

This song is in C. The guitar, as usual, is chorused.
Previously
tabbed by someone else, I couldn't find the name.

Jimmy Pena - jimmy@protected.olga.net

| = not a standard bar line; just used to separate music
~ = vibrato or held note
x = percussive note with no pitch; muted note
h = hammer on
p = pull off
s = slide
b = bend string up to indicated pitch/fret
r = release bend to indicated string/fret
/ = slide up from infinity
\ = slide down into infinity
[5] = artificial harmonic (use thumb to follow through the pick
attack)
o \_
o / repeat sign (always look for these!)

[x35553] = fret box; this is a C chord - this is the same as standard
tablature, only turned on its side. Tilt your head clockwise to
read.
PM = Palm Mute; lightly touch the strings at the bridge with the edge
of
the fret hand

Chord legend:

Dm : [x5776x]
C : [x3555x]
F : [133211]
G : [355433]
G/D : [xx0787]

[Intro]
Am11 Csus2 Gsus2 Am11 C Csus2
e:--3~~---------3~-----------10~---------3~---------------------3~---|
B:--3~~---------3~-----------10~---------3~---------------------3~---|
G:--5~~---------5~-----------12~---------5~---------------------5~---|
D:--5~~---------5~-----------12~---------5~---------------------5~---|
A:--0~~---------3~-----------10~---------0~-------3-3-3-3-3-3-3-3~---|
E:-------------------------------------------------------------------|
PM -------------|

Gsus2 Am11
e:-----------------------10~------------------3~---------------------|
B:-----------------------10~------------------3~---------------------|
G:-----------------------12~------------------5~---------------------|
D:-----------------------12~------------------5~---------------------|
A:--10-10-10-10-10-10-10-10~----0-0-0-0-0-0-0-0~---------------------|
E:-------------------------------------------------------------------|
PM --------------------| PM -------------|

[Riff 1] [Riff 2]
Dsus4 D Am F G F G
e:-----------------------------|---1--1--1--3---1--1--1--3---3-------|
B:----8-----7-----5------------|---1--1--1--3---1--1--1--3---3-------|
G:o---7-----7-----5-----------o|o--2--2--2--4---2--2--2--4---4------o|
D:o---7--7--7--7--7--7--7-----o|o--3--3--3--5---3--3--3--5---5------o|
A:-----------------------------|---3--3--3--5---3--3--3--5---5-------|
E:-----------------------------|---1--1--1--3---1--1--1--3---3-------|

[Riff 3] [Riff 4]
e:---------------------|---------5-----------------------------------|
B:---6-------6--5-6----|-------6------6------------------------------|
G:-----7---------------|-----7--------7------------------------------|
D:-------7-------------|---7-----------------------------------------|
A:---------------------|---------------------------------------------|
E:---------------------|---------------------------------------------|

Progression:

[Intro] x1

[Riff 1] x4
[Riff 2] x2

Am11 Csus2
An ill wind comes arising across the cities ....
Gsus2
Am11
There's no swimming in the heavy water....
G/D
Red alert, ....


(Play these riffs with the lyrics below):


Am11 Csus2
e:-----------------------3------------------------------------3------|
B:-----------------------3--------------3---------------------3--3-3-|
G:---------------5-5--5--5--5-5-------5---5------------5-5----5------|
D:-----------5-5---------5------5-5-5-------------5-5------5--5------|
A:-------0-0-------------0-------------------3-3---------------------|
E:-------------------------------------------------------------------|
PM --------------| PM -------------------------------| PM--|
It's so hard to stay together, ....

Gsus2 Am11
e:------------------------------------10-----------------------------|
B:-3-3-----3--------------------------10----------10-----------------|
G:-----5-5---5--------------12-12--12-12--12-12------12----10--------|
D:--------------------12-12-----------12-------12-------12---------5-|
A:--------------10-10-----------------10-----------------------0-0---|
E:-------------------------------------------------------------------|
PM ----------------------------------| PM ------------------------|
We need someone to talk to and ...

e:-------------3-----------------------------------------------------|
B:-------------3--3---------3----------------------------------------|
G:-----5-5--5--5----5-5-------5--------------------------------------|
D:--5----------5--------5-5------------------------------------------|
A:-------------0-----------------------------------------------------|
E:-------------------------------------------------------------------|
PM ----------| PM ------------|
incomplete.

[Riff 1] x4
[Riff 2] x2

(* = Strum each chord)

Dm* C* Dm [Riff 3] x1 F F G
The world weighs on my shoulders, ...
Dm* C* Dm [Riff 4] x1 F F G
You sometimes drive me crazy....
Dm* C* Dm [Riff 3] x1 F F G
I know it makes no .....
G Dm* C* Dm [Riff 4] x1 F F G
But I see the tip of ....

Am11 Csus2 Gsus2
e:---3~~----------3~-----------10~-----------------------------------|
B:---3~~----------3~-----------10~-----------------------------------|
G:---5~~----------5~-----------12~-----------------------------------|
D:---5~~----------5~-----------12~-----------------------------------|
A:---0~~----------3~-----------10~-----------------------------------|
E:-------------------------------------------------------------------|

Am11 Csus2
e:-----------------3---3-3-------------------------------3--3--------|
B:--------------3--3-------3-3---------------------------3----3------|
G:----------5-5----5-----------5-5-------------5-5--5----5------5-5--|
D:-----5-5---------5---------------------5--5------------5----------5|
A:-0-0-------------------------------3-3-----------------3-----------|
E:-------------------------------------------------------------------|
PM --------------| PM -------------------------------| PM ------|
Cruising under your radar, ....

Gsus2 Am11
e:---------------------------10--------------------------------------|
B:---------------------------10--10-10-10-------10-------------------|
G:----------------12-12------12-----------12-12---12-----------5-5---|
D:----------12-12--------12--12----------------------------5-5-----5-|
A:----10-10--------------------------------------------0-0-----------|
E:-------------------------------------------------------------------|
PM -----------------------| PM ---------------------------------|
Take a page from the red book and ....,

G
e:--3----------------------------------------------------------------|
B:--3-------3-3---3----------8-8-------------8------8----------------|
G:--5-----------5----------7-----7-7-------7------7------------------|
D:--5--5-5-------------9-9--------------9-------9------9\------------|
A:--0----------------------------------------------------------------|
E:-------------------------------------------------------------------|
PM ---------------------------------------------------|
red alert.

Am11 Csus2 Gsus2
e:-------------3---------3\------------------------------------------|
B:---------3-----5-----------------------3----3----------------------|
G:-----------5--------5-----------5--5-----5-----5-------12----------|
D:-----5-5----------5-----------5---------------------12--------12---|
A:-0-0------------------------3-----------------------------10-------|
E:-------------------------------------------------------------------|
PM ---------------------------------------------------------------|
Left and rights of passage, black and ....

e:-------------------------------------------------------------------|
B:----------------------10------------10-----10----------------------|
G:------------------12---------12------------------10----------------|
D:------12--12--12----------12-----12----12-----12----12-------------|
A:---10--------------------------------------------------------------|
E:-------------------------------------------------------------------|
PM -----------------------------------------------------|
face the knowledge that the .....

Am11
e:------------------3---------3------------3-------------------------|
B:--------------------------------------3----------------------------|
G:-----------5---------5------------5----------5-----5---------------|
D:--------5-----5---------5-----------------------5------------------|
A:-----0-------------------------------------------------------------|
E:-------------------------------------------------------------------|
PM ----------------------------------------------------|
Obsolete, ....

[Riff 1] x4
[Riff 2] x2

(* = Strum each chord)

Dm* C* Dm [Riff 3] x1 F F G
The world weighs on my shoulders....
Dm* C* Dm [Riff 4] x1 F F G
You sometimes drive me crazy.....
Dm* C* Dm [Riff 3] x1 F F G
I know it makes no difference to .....
G Dm* C* Dm [Riff 4] x1 F F G
But I see the tip of the iceberg ....

Dm C Dm F G
e:---------5---5--5-----------------------------------------1--1---3--
-|
B:---6---6---6-------6----5----5---5---5---6----6---6---6---1--1---3--
-|
G:o--7---------------7----5--5---5---5-----7--7---7---7-----2--2---4--
o|
D:o--7---------------7----5----------------7----------------3--3---5--
o|
A:---5---------------5----3----------------5----------------3--3---5--
-|
E:----------------------------------------------------------1--1---3--
-|

[Guitar Solo]

e:--------------------------------------------------------------------
-|
B:--------------------------------------------------------------------
-|
G:-14-12-------------14-12------------14-12-------------14-12---------
-|
D:-------15-14-12~---------15-14-12~--------15-14-[12]~-------15-14-
12~|
A:--------------------------------------------------------------------
-|
E:--------------------------------------------------------------------
-|

e:-13--12-12-12----------------------13-13-13-12---------------------|
B:--------------15-15-15-13-12-------------------15-15-15-13-12------|
G:-----------------------------14-------------------------------14---|
D:-------------------------------------------------------------------|
A:-------------------------------------------------------------------|
E:-------------------------------------------------------------------|

e:-13-13-13-13-12-12-----------------13--13-13-12--------------------|
B:-------------------15-15-13-12------------------15-15-15-13-12-----|
G:-------------------------------14----------------------------------|
D:-------------------------------------------------------------------|
A:-------------------------------------------------------------------|
E:-------------------------------------------------------------------|

Am11 Csus2
e:------3--------3--3-------3--3--3--3---5--3-------------3----------|
B:----------------------------------------------------------3--------|
G:---5-----5--5--------5-5------------------------------------5---5--|
D:-----------------------------------------------5--5--5--------5----|
A:-----------------------------------------------3--3--3-------------|
E:-------------------------------------------------------------------|
Gsus2
e:-------3----------------------------10-----------------------------|
B:-----3---3----------------10---------------10----10-------12---13--|
G:--5--------5-----------12----12---------------------12-------------|
D:-------------5------12----------12------12----12-------12----------|
A:-----------------10------------------------------------------------|
E:-------------------------------------------------------------------|
Am11?
e:---------------------------3-------3---3--3-3-3--------------------|
B:---------10-------------3----3-----3---3--3-3-3--------------------|
G:------12--------------5--------5---5---5--5-5-5--------------------|
D:---12---------------5----------------------------------------------|
A:-----------------0-------------------------------------------------|
E:-------------------------------------------------------------------|

[Riff 1] x8
[Riff 2] x4

(* = Strum each chord)

Dm* C* Dm [Riff 3] x1 F F G
The world weighs on my shoulders...
Dm* C* Dm [Riff 4] x1 F F G
You sometimes drive ....
Dm* C* Dm [Riff 3] x1 F F G
I know it makes no difference ....
G Dm* C* Dm [Riff 4] x1 F F G
But I see the tip of the iceberg .....

[Outro]

Dm C Dm F G
e:--5-5-5-5--5-5-5-5--------------------5-5-5-5--5-5-5-5--1-1-1-3-3-3-
|
B:--6-6-6-6--6-6-6-6--5-5-5-5--5-5-5-5--6-6-6-6--6-6-6-6--1-1-1-3-3-3-
|
G:--7-7-7-7--7-7-7-7--5-5-5-5--5-5-5-5--7-7-7-7--7-7-7-7--2-2-2-4-4-4-
|
D:--7-7-7-7--7-7-7-7--5-5-5-5--5-5-5-5--7-7-7-7--7-7-7-7--3-3-3-5-5-5-
|
A:--5-5-5-5--5-5-5-5--3-3-3-3--3-3-3-3--5-5-5-5--5-5-5-5--3-3-3-5-5-5-
|
E:--------------------------------------------------------1-1-1-3-3-3-
|

Dm C Dm F
e:--5-5-5-5--5-5-5-5--------------------5-5-5-5--5-5-5-5--------------
--|
B:--6-6-6-6--6-6-6-6--5-5-5-5--5-5-5-5--6-6-6-6--6-6-6-6--10-10-10-10-
--|
G:o-7-7-7-7--7-7-7-7--5-5-5-5--5-5-5-5--7-7-7-7--7-7-7-7--10-10-10-10-
--|
D:o-7-7-7-7--7-7-7-7--5-5-5-5--5-5-5-5--7-7-7-7--7-7-7-7--10-10-10-10-
--|
A:--5-5-5-5--5-5-5-5--3-3-3-3--3-3-3-3--5-5-5-5--5-5-5-5--8--8--8--8--
--|
E:--------------------------------------------------------------------
--|
G Dm
e:----------------|---5--5~~-----------------------------------------|
B:--12-12-12-12---|---6--6~~-----------------------------------------|
G:--12-12-12-12--o|---7--7~~-----------------------------------------|
D:--12-12-12-12--o|---7--7~~-----------------------------------------|
A:--10-10-10-10---|---5--5~~-----------------------------------------|
E:----------------|--------------------------------------------------|


"Double Agent"
from the album Counterparts
as recorded by Rush

transcribed by Ken Atwell (gu093kea@protected.olga.net)

Special Notations:
~ slight vibrato (with left hand or whammy bar)
/ slide up the string (toward pickups)
\ slide down the string (toward the nut)
(12) natural harmonic (fret in parens)
P pull-off
X\ pick slide

You'll have to familiar with the song or play along with the CD to get
the
timing down. Some of the changes can be tricky (a staple of Rush's
music),
so keep with it.

Guitar enters at 0:16 with Riff 1. Play it once.

Riff 1 (medium distortion with chorus)
F C5
E ------------------------------------------------------------------
--
B ------------------------------------------------------------------
--
G -----------7--5--10--9--7--5------17~------2--2--2----5--5\-------
--
D ------------------------------15-----------3--3--3----5--5\-------
--
A --5--3--5----------------------------------3--3--3----3--3\-------
--
E -------------------------------------------1--1--1----------------
--

G F C5
E ------------------------------------------------------------------
--
B ------------------------------------------------------------------
--
G -----------7--5--10--9--7--5------4--------2--2--2----5--5--------
--
D ----------------------------------5--------3--3--3----5--5--------
--
A --5--3--5-------------------------5--------3--3--3----3--3--------
--
E ------------------------------3---3--------1--1--1----------------
--

Riff 2 begin at 0:32. Play whole thing and then repeat section
between
the vertical bars ONLY 4 times.

Riff 2 (heavier distortion, no chorus)
P P
E -----------------------|------------------------------------------
--
B -----------------------|------------------------------------------
--
G -----------------------|------------------------------------------
--
D -----------------------|------------------------------------------
--
A -----------------------|------------------------------------------
--
E --0---0--0---0--0--3--5|-3-0---0--0---0--0--3--5--3-0---0--0---0--
0-

C m7+a9 (???)
E -------------------------------|
B -------------------------------|
G --------/8---8--8---8--8-------|
D --------/8---8--8---8--8-------|
A --------/7---7--7---7--7-------|
E --3--5--/8---8--8---8--8--3--5-|

Riff 3 begins at 0:56. Play the figure between the vertical bar three
times
and end with an E5 chord (fretted low to high 022XXX)

Riff 3 (distorted)
P
E -|---------------------------|-
B -|---------------------------|-
G -|---------------------------|-
D -|-------------------1--0----|-
A -|-0--0-----0--------------3-|-
E -|-------3-----3--0----------|-

The song returns briefly to Riff 2 at 1:01. Play the section between
the
veritcal bar ONCE and then follow with this figure:

Riff 4 (distored, last chord clean with chorus)
P A
E ---------------------------------------------------5--------
B ---------------------------------------------------5--------
G ---------------------------------------------------6--------
D ---------------------------------------------------7--------
A ---------------------------------------------------7--------
E --0---0--0---0--0--3--5--3-0---0--0---0--0--3--5---5--------

The rhythmn of next section of the song makes it uncondusive to
transcription
here. Below are the chord changes. Listen to the album for the
timing of
rhythmn and chord changes. To further complicate things, two guitars
are
here with different tones. The sustained chords are played clean, the
choppy
rhythms are distorted. To play this on a single guitar, you'll have
to hop
around on your effects rather quickly.

Riff 5 (2 guitars written for a single guitar)
1:12 1:15 1:18 1:21 1:24 1:27 1:29 ..
C#5 A5 C#5 A C#5 B5 C5 B5 A5
E ------------------------5-------------------------------------------
B ------------------------5-------------------------------------------
G ----6------2------6-----6----6----4----5--4--2----------------------
D ----6------2------4-----7----6----4----5--4--2----------------------
A ----4------0------4-----7----4----2----3--2--0----------------------
E ------------------------5-------------------------------------------

Return to Riff 1 at 1:33. Play it twice.
Play Riff 2 (between the veritcal bars only) three times. (begins at
2:05)
Play Riff 3 three times, end with an E5 chord again (begins at 2:18)
Play Riff 2 (between the vertical bars only) three times and follow
with
Riff 4. (begins at 2:24)
Play Riff 5. (begins at 2:33)

Riff 6 begin at 2:54 in lieu of Riff 1. It is played 16 times.

Riff 6 (light distortion)
D C E
E -----------------------------------
B -----------------------------------
G -----7---7--7---7--7---5---9\------
D -----------------------------------
A -----5---5--5---5--5---3---7\------
E -----------------------------------

Play Riff 2 (the whole thing this time) at 3:26.

Begining at 3:32 is the closest thing this song has to a guitar solo.
Finger a natural harmonic at the 24th fret of the 4th string (D).
Tremelo
pick (pick as fast as possible) while moving the harmonic up the neck.
Alex does this (or at least, something close to this) at 3:32 - 3:37
and
at 3:41-3:47. Add a healthy dose of flange or chorus and you've got
a cool trick.

Riff 7 (distored, with heavy chorus)

trem picking trem picking pick slds.
E ------------------------------------------------------------------
--
B ------------------------------------------------------------------
--
G -------------------------------------------------------X\---------
--
D ---(24)-\\\\\\\\-(3)--3---3---(24)-\\\\\\\\-(3)--3--3--X\--X/-----
--
A ----------------------3---3----------------------3--3--X\--X/-----
--
E ----------------------1---1----------------------1--1------X/-----
--

With all of the effects saturating Alex's guitar tone, its hard to
make out
the next part (at 3:50). Riff 8 is the best I could do. Play it 4
times
and follow with a A chord (low to high 577655).

Riff 8 (distored with heavy chorus)

E ----------------------------------
B ----------------------------------
G -----------------------17--14-----
D --17---17--17--15--17-------------
A ----------------------------------
E ----------------------------------

Play Riff 5 (begining at 3:59).
Play Riff 2 (between bar only) 3 times (at 4:20)
Play Riff 3 3 times (at 4:33) and with an A5.
Play Riff 2 twice (between bars only) at 4:39 and end the song with
the
begining of Riff 2 (up until the first veritcal bar ONLY).





"Dreamline" tabs for guitar

Transcription by: Joe T. Kung (jtkung@protected.olga.net)


Intro and verse:
(played with extreme compression and distortion, muted picking)

-----5-0-5-7-5-0-----5-0-5-7-5-9-
-0-7-------------0-7-------------
---------------------------------
---------------------------------
---------------------------------
---------------------------------
[repeat 5 times for verse]


sixth time (cut off intro lick):

-----5-0-5-7-5-0-----5-0-
-0-7-------------0-7-----
-------------------------
-------------------------
-------------------------
-------------------------


Then the song jumps into the powerchords.


Powerchords (all no-3rds, see *)

G, F#, E,
G, F#, D (then some fills, see **)
F#, E, B,
C, D, E
G, F#, E
G, F#, D (again, see **)
F#, E, B
C, D, E

Then the into intro/verse sequence again, followed by power-chords.
After that the "cut off intro lick".

The song then goes into the chorus ("We are young ...") section which
doesn't
sound like there's any distinct guitar parts, but chords that would go
well
are :

Asus2, Gmaj, Dmaj, and Cmaj, based on Geddy's bass line. You can just
follow along with Geddy and do a muted rhythm with the guitar.


Then the intro/verse and powerchord part again. After this,
the solo begins:

----------------------------------------------22>(24)-(24)-(24)-(24)-
---------10--8!--12--15>(17)-(17)-(17)->15---------------------------
-7---7---------------------------------------------------------------
---------------------------------------------------------------------
---------------------------------------------------------------------
---------------------------------------------------------------------
light
whammy after
sounding drone
note


-------22>(24)-(24)-(24)-(24)---------------------------
-------------------------------(17)>15-12----15>(17)>15-
------------------------------------------14------------
--------------------------------------------------------
--------------------------------------------------------
---0----------------------------------------------------
dive
bomb


----12-14-15-12-14-15-17-14-15--15>17--17-15-17>(19)>17- (feedback &
sustain)
-15-----------------------------------------------------
--------------------------------------------------------
--------------------------------------------------------
--------------------------------------------------------
--------------------------------------------------------

which is followed again by the chorus, and then the power chord
section for the last time, ending on E.


The song is probably cut with a PRS fitted with Evans active
single-coils and played thru a GK preamp (the newer model).


* No-3rd chords (powerchords) can be played like this:

--- This example is a D no-3rd. The root note is played on the A
--- string.
-7-
-7-
-5-
---

** The fill section
is like :

-2-----4--2-
---3--------
-----2------
------------
------------
------------

--
Legend:

| - A pair of these indicate a part of music, not the usuals bars.
: - Indicates that a part is to be repeated. This may be ommited, you
should
hear it too.
_ - Indicates a hammer-on or pull-off (You should know which is
appropriate)
> - Indicates a bend-up or down or a slide. With a bend, the note to
bend to
is between '(' and ')'. Use the whammy for a downbend. With a
slide, the
follow-up note is the one to be slid to.
! - Indicates vibrato.
^ - Indicates a tapped harmonic. Is printed below the note.
. - Under the strings, it indicates the note is staccato (short).
\ - Indicates a general slide downwards from note, to no note in
particular.
AH - Indicates adding artificial harmonic with pick hand.

----
For corrections or questions on the tabs, contact the author. If no e-
mail
address is included, contact Frank or Mario, addresses below. Contact
Frank
for guitar tabs, and Mario for bass tabs.


Band: RUSH
Title: Driven
Tabbed by: Shawn Pollard
Drop D tuning (EBGDAD)

Intro
E------------------------------------------------------------
repeat
B------------------------------------------------------------
G------------------------------------------------------------
D------------------------------------------------------------
A-3p0-0-5p0-3p0-0-5p0-3p0-3p0-3p0-0-5p0-0-6p0-6p0-6p0-5p0-3p0
D------------------------------------------------------------
Verse
F G Am Am F G repeat
E-1 E-3 E-0
B-1 B-0 B-1
G-2 G-0 G-2
D-3 D-0 D-2
A-0 A-2 A-0
D-0 D-3 D-0
strumming pattern- Down Up Down Up
End verse on D
E-2
B-3
G-2
D-0
A-x
D-x
Chorus
E------------------------------------------------------------------
-
B------------------------------------------------------------------
-
G------------------------------------------------------------------
-
D-0----------------------------------------------------------------
-
A-0-2-3-3-3-3-5-3-5-7-7-7-7-7-5-7-3-3-3-3-5-3-2-0---2--------------
-
D-0-2-3-3-3-3-5-3-5-7-7-7-7-7-5-7-3-3-3-3-5-3-2-0---2-3-3-3-3-5-7-
7-
E------------------------------------------------------------------
-
B------------------------------------------------------------------
-
G------------------------------------------------------------------
-
D------------------------------------------------------------------
-
A-----------3-3-3-3-5-3-2-0-2-3-5-7-7-7-
D-7-7-7-5-7-3-3-3-3-5-3-2-0-2-3-5-7-7-7-

C
E---------------------0 Repeat
B---------------------1
G---------------------0
D---------------------2
A-5v-------5-----5----3
D----5v-7v---3-2---5v-x
Eb
E------------------x----------------
B------------------8----------------
G------------------8----------------
D------------------8----------------
A-8------6-----8---6-5-6-5-3-5-7-7-7
D---8-10---6-5---8-x-------3-5-7-7-7




~Shawn~



Emotion Detector - Rush

Jimmy Pena - jimmy@protected.olga.net

Chord legend:

Gm : [355333]
Am7 : [x02010]
Bb : [x13331]
Bbmaj7 : [x1323x]
F : [133211]
F/A : [x03211]
Bb(addC) : [x33331]
C : [x30210]
G : [320033]
Dm : [xx0231]
Am : [x02210]


Song Progression:

Gm Am7 Bb x4

[xx5533]
Gm9 [353335] Am7 Bbmaj7 F Gm
sus4
When we lift the cover from our feelings, ...
F/A Bb Bb(addC) Gm sus4
Trust is just as rare as devotion...
Am7 Bb Bb(addC) Gm
If we need too much attention, ...
Am7 Bb Bb(addC) Gm
We must throw ourselves wide open, ....
Am7 Bb Gm Am7 Bb
If we need too much approval, ....

C C C C F G Dm Am G
Right to the ....
C C C C F G Dm Am G
Right to the ....
C C C C F G Dm Am G C
Illusions are painfully ....
F G Dm Am G C
In the secret wells ....

F G Dm Am G

Bb Am7 Bb(addC)

Gm Am Bb(addC)
It's true that love can ....
Gm Am Bb(addC)
Sometimes we are too tender, ....
Gm Am Bb(addC)
If we get too much attention, ....
Gm Am Bb(addC)
So often fragile power ....
Gm Am Bb(addC) Gm
Sometimes our big splashes....

Am Bb

C C C C F G Dm Am G
Right to the heart ....
C C C C F G Dm Am G
Right to the .....
C C C C F G Dm Am G C
Illusions are painfully ....
F G Dm Am G C
In the secret wells of emotion .....

F G Dm Am G

Repeat until end:

C C C C F G Dm Am G
Feelings .....

On last repeat, end on C chord


Tab For "Entre Nous"
by Rush
from Permanent Waves
tabbed by J-Punk

RIFFS
Riff 1
e:-----------------|-----------------|
B:-2-----4-----5---|---4-----4-2-----|
G:---2-----2-----2-|-----2-------2---|
D:-----2-----2-----|-2-----2-------2-|

Riff 2
e:-----------------|-----------------|
B:-4-----5-----7---|---5-----5-4-----|
G:---4-----4-----4-|-----4-------4---|
D:-----4-----4-----|-4-----4-------4-|

Riff 3
e:-----------------|-4---------------|
B:-4-----5-----7---|-----7---5-4-----|
G:---4-----4-----4-|---4---------4---|
D:-----4-----4-----|-------4-------4-|

Riff 4
e:-5-----7-----8---|
B:-----------------|
G:---7-----7-----7-|
D:-----7-----7-----|

CHORDS
A X0222X D XX423X E XXX100
G XX5433 C XX2010 Csus2 X35533
Dsus2 XX0230

RYTHYMS
Rythym 1
|A |D |E |A |D |E |D |E |A |D |A G D|(D)|

Rythym 2
|Riff 4|C G|G Csus2 G|Riff 4|C Dsus2 G|
^7/4 (then back to 4/4)

Rythym 3
|Riff 4|C G|G Csus2 G|Riff 4|C Csus2|D|Csus2 D|G|
^3/4 ^4/4

Fill 1
|A G D|(D)|

SONG STRUCTURE
-->Play Riff 1 x2
-->Play Riff 2 x2
-->Play Riff 1 x2
-->Play Riff 2 x1
-->Play Riff 3 x1
-->Play Rythym 1 x2 over:
We are secrets to ...
-->Play Rythym 2+3 x1 over:
Just between us,....
-->Play Riff 1 x2
-->Play Rythym 1 x1 over:
We are strangers to ....
-->Play Rythym 2+3 x1 over:
Just between us,...
-->Play Riff 1 x1
-->Play Riff 2 x1
-->Play Riff 2, moved up 2 frets x1
-->Play E(XXX997) for 2 bars
-->Solo for 20 bars
-->Play Riffs 1+3 x1
-->Play Rythym 1 x1 over:
We are islands to ....
-->Play Fill 1 x1
-->Play Rythym 2+3 x1 over:
Just between us,....

FINDING MY WAY" guitar tabs

transcribed by George Grinch (csc8mnp@protected.olga.net)

intro
|-5------------------------------------------5------------------------
--------
|-5------------------------------------------5------------------------
--------
|-2---------------_-----_-----_-----_--------2---------------_-----_--
---_----
|-2--------------4-2---4-2---4-2---4-2--_----2--------------4-2---4-2-
--4-2---
|-0--0-0-0-0-0-0-----3-----3-----3-----3-0---0--0-0-0-0-0-0-----3-----
3-----3-
|---------------------------------------------------------------------
--------

verse
-----------5-----------------------------------------3------|---------
-----3--
-----------5-----------------------------------------3--3---|---------
--3--3--
--_--------2---------------_-----_-----_-----_-------0--2--.|--2-2---
2--2--0--
-4-2--_----2--------------4-2---4-2---4-2---4-2--_---0--0--.|--2-2---
2--0--0--
-----3-0---0--0-0-0-0-0-0-----3-----3-----3-----3-0---------|--0-0---
0--------
------------------------------------------------------------|------3--
--------
[repeat four times]

----------------3-----------------3-----------------3-----------------
-------
-3-----------3--3--3-----------3--3--3-----------3--3--3--------------
-------
-2--2-2---2--2--0--2--2-2---2--2--0--2--2-2---2--2--0--2---5-5-3-5--5-
-------
-0--2-2---2--0--0--0--2-2---2--0--0--0--2-2---2--0--0--0---5-5-3-5--5-
-3--5--
----0-0---0-----------0-0---0-----------0-0---0------------3-3-1-3--3-
-3--5--
--------3-----------------3-----------------3-------------------------
-1--3--

chorus
---------------------------------3-----------------3-----|------------
------
------------------------------3--3--3-----------3--3--3--|------------
------
--5-5-3-5--5---------2-2---2--2--0--2--2-2---2--2--0--2--|------------
------
--5-5-3-5--5--3--5---2-2---2--0--0--0--2-2---2--0--0--0--|---3--------
---5--
--3-3-1-3--3--3--5---0-0---0-----------0-0---0-----------|---3------3-
---5--
--------------1--3-------3-----------------3-------------|---1---1--1-
-1-3--

-------------------------3-3--|
-------------------------3-3--|

----------2-2----2----2--0-0--| repeat intro 3 times then
----------2-2----2----2--0-0--| verse and chorus once each
----5-----0-0----0----0-------|
--3-3--3-------3----3---------|

bridge

|---------------------------|---------------------------|-------------
------
|---------------------------|---------------------------|-------------
------
|--------------7-7---------.|--------------5-5---------.|-------------
-7-7--
|--7-7---------7-7---------.|--5-5---------5-5---------.|--7-7--------
-7-7--
|--7-7--4-5-7--5-5----------|--5-5--2-3-5--3-3----------|--7-7--4-5-7-
-5-5--
|--5-5--------------2-3-4---|--3-3--------------0-1-2---|--5-5--------
------
[repeat two times] [repeat two times]



------------------------------|
------------------------------|
--------------------7-7-------|
--------7-7---------7-7--5-7--|
--------7-7--4-5-7--5-5--5-7--|
-2-3-4--5-5--------------3-5--|


Solo
|--------------------15--15-------15--------_----
|------13-15-13--15>====(17)--15--15>(17)>15-13--
|-->14-------------------------------------------
|------------------------------------------------
|------------------------------------------------
|------------------------------------------------


-----------------------------------_--------------------_---------_---
--------
---15-13----------13>15--17>(19)>17-15---------------5-8-5-----5-8-5--
--_-----
14-------14-13-14-----------------------17-14->--7->-------7->-------
7-7-5----
----------------------------------------------------------------------
-----7-5
----------------------------------------------------------------------
--------
----------------------------------------------------------------------
--------


----------------------------------------------------------------------
--------
------------_-------------_-_---------_-------------------------------
--------
5-7>-(10)->7-5---5-5--_--5-7-5---5-7-7-5---5--------------------------
--------
---------------7-----5-7-------7---------7---7-6-5--------------------
--------
---------------------------------------------------7-6-5-3-5-5><><----
-3-3----
--------------------------------------------------------------------3-
5----3-5


------------------------------------------------------_---------------
---_----
---------------------------------------------------5-8-5--------------
5-8-5---
-----------------_----5>-8->5--_-------_--5---5-7>-------7-5---5-5-7>-
------7>
---_----------5-7-5-----------5-7--_--5-7---7----------------7--------
--------
3-5-3---3-5>7-------7-------------5-7---------------------------------
--------
------5---------------------------------------------------------------
--------

_
---_--------_---------5-8-5---5--_-_----------------------------------
-------
5-8-5----5-8-5----5-8-------7---8-7-5----5--_----5-------------------
_-------
------7>-------7>---------------------7>---7-5---5-7-----5-7>-(11)->7-
5---5-5
-----------------------------------------------7---7-5-7--------------
--7----
----------------------------------------------------------------------
-------
----------------------------------------------------------------------
-------

interlude gtr1
|---------_----------|-------------_----------------|-----------------
------
|------5-7_8---------|--------5---7_8---------------|---------_-------
------
|------5-7-8-5-7-5--.|--------5---7-8--5---7---5---.|------5-7-8-5-7-
5------
|--5-7--------------.|--5--7-----------------------.|--5-7------------
-5-7--
|--------------------|------------------------------|-----------------
------
|--------------------|------------------------------|-----------------
------
[repeat 4 times] | gtr2 |
|------------------------------|
|-------------_----------------|
|--------12-14-15-12--14--12--.|
|--12-14----------------------.|
|------------------------------|
|------------------------------|
[repeat 2 times]

-----_---------|
--5-7_8-5-7-5--| repeat chorus twice between bridge and solo; solo
--5-7-8-5-7-5--| is played over verse; after interlude, play chorus
---------------| two times, then the intro three times
---------------|
---------------|

ending verse
|--------------3-----------------3-----------------3---------------|
|-----------3--3--3-----------3--3--3-----------3--3--3------------|
|--2-2---2--2--0--2--2-2---2--2--0--2--2-2---2--2--0--2---2-2---2--|
|--2-2---2--0--0--0--2-2---2--0--0--0--2-2---2--0--0--0---2-2---2--|
|--0-0---0-----------0-0---0-----------0-0---0------------0-0---0--|
|------3-----------------3-----------------3------------------3----|

In the intro section, though this is not notated, Alex often plays the
A chord
with a quick upstroke before the beat followed by a downstroke on the
beat. The
open string notes in the intro are all played with downstrokes.

--
Legend:

| - A pair of these indicate a part of music, not the usuals bars.
: - Indicates that a part is to be repeated. This may be ommited,
you should

hear it too.
_ - Indicates a hammer-on or pull-off (You should know which is
appropriate)
> - Indicates a bend-up or down or a slide. With a bend, the note to
bend to
is between '(' and ')'. Use the whammy for a downbend. With a
slide, the
follow-up note is the one to be slid to.
! - Indicates vibrato.
^ - Indicates a tapped harmonic. Is printed below the note.
. - Under the strings, it indicates the note is staccato (short).
\ - Indicates a general slide downwards from note, to no note in
particular.
AH - Indicates adding artificial harmonic with pick hand.
< - Indicates a downslide. Is only present here after an upslide
= - Indicates a held note. May also be a held bent. Used to give
some feel

for length when needed.

----
For corrections or questions on the tabs, contact the author. If no e-
mail

address is included, contact Frank or Mario, addresses below. Contact
Frank
for guitar tabs, and Mario for bass tabs.

For remarks, suggestions or additions on the tab 'archive', contact:

Frank (guitar) or Mario (bass)
(schaaphe@protected.olga.net)
(motcid!marble!dalessio@protected.olga.net)
Rush - Fly By Night

This tab is my meager attempt at tabbing Fly By Night. Some
parts
were old, some parts were new. The solo is not complete. Everything I
have figured out is below. As for the rest, you are on your own. The
key
is D.

Jimmy Pena - jimmy@protected.olga.net

| - not a standard bar line; just used to separate music
~ - vibrato or held note
x - percussive note with no pitch; muted note
. - staccato; mute the note immediately after striking it
h - hammer on
p - pull off
s - slide
t - trill; play the note(s) indicated rapidly and repeatedly
/ - slide up from infinity
\ - slide down into infinity
<5> - natural harmonic (or pinch harmonic)
3(b5) - bend note up from 3rd to 5th fret pitch
3(b5r3) - bend note from 3rd to 5th fret pitch, then return to 3rd
fret
o \_
o / repeat sign (always look for these!)

[x35553] - fret box; this is a C chord - this is the same as standard
tablature, only turned on its side. Tilt your head clockwise to
read.



[Riff 1]
D Dsus4 C G/B Gm/Bb A G A
e:-2--2---3--3-|-------------3-------3---------3--------------------|
B:-3--3---3--3-|-------------3-------3---------3---2--0--2----------|
G:-2--2---0--0-|-------------0-------0---------0---2--0--2----------|
D:-0--0---2--2-|----------2-------0----------0-----2--0--2----------|
A:-------------|--0--2--3-------2-------0--1-------0--0--0----------|
E:-------------|----------------------------------------------------|

[Riff 2]
G D G/D
e:--3--2--2-----------|-7--7\-----3--2--2--2----------------------|
B:--3--3--3-----------|-8--8\-----3--3--3--3--2--2--0--2----------|
G:--0--2--2-----------|-7--7\-----0--2--2--2--2--2--0--2----------|
D:--0--0--0-----------|-----------0--0--0--0--2--2--0--2----------|
A:--2--------3--2-0---|-----------2-----------0--0--0--0----------|
E:--3---------------3-|-----------3-------------------------------|

[Riff 3]
D F
e:-2---2----5---5----7--8--10-----------------10\-----------------|
B:--3---3----6---6---8--8--10----10---10---10---------------------|
G:---2---2----5---5--7--9--11------11---11------------------------|
D:----------------------------------------------------------------|
A:----------------------------------------------------------------|
E:----------------------------------------------------------------|

[Riff 4]
Am Fmaj7 louder
e:-0---0----0---0-----------------------7-7-7-7-7-7\--------------|
B:--1---1----1---1----------------------8-8-8-8-8-8\--------------|
G:---2---2----2---2---------------------7-7-7-7-7-7\--------------|
D:----------------------------------------------------------------|
A:----------------------------------------------------------------|
E:----------------------------------------------------------------|

Song Progression:

[Riff 1] x3

[Riff 1] x2 /w lyrics:

Why try? I know ....

[Riff 2] x1 /w lyrics:

Fly by night away from here, ....

[First half of Riff 2, then last half of Riff 1] x1 /w lyrics:

Fly by night, goodbye .....

[Riff 1] x1

[Riff 1] x2 /w lyrics

Moon rise, thoughtful ....

[Riff 2] x1 /w lyrics:

Fly by night away from here, ....

[First half of Riff 2, then last half of Riff 1] x1 /w lyrics:

Fly by night, goodbye my ...

[Guitar Solo]

e:----------------------------------------------------------------|
B:--6(b7)--6(b7)--6p5---5-5--3--5p3-------------------------------|
G:--------------------7-------------6---5--4--0--3----------------|
D:--------------------------------------------------2h3p2h3p2h3---|
A:----------------------------------------------------------------|
E:----------------------------------------------------------------|

e:--------------------------------7p6p5--7p5--7h8h9--13(b14)------|
B:-------5--6(b7)--6(b7)--5h6h8-----------------------------------|
G:-4h5h7----------------------------------------------------------|
D:----------------------------------------------------------------|
A:----------------------------------------------------------------|
E:----------------------------------------------------------------|

e:-13p11p10--11p10p8--5---5---------------------------------------|
B:----------------------8---8/11~-------3-3--3-3-3-3-----3-3------|
G:----------------------------------2h4--------------2h4----------|
D:----------------------------------------------------------------|
A:----------------------------------------------------------------|
E:----------------------------------------------------------------|

e:----------------------------------------------------------------|
B:-5p3\2-----------5--7-------------------------------------------|
G:-------4--2--4h6------------------------------------------------|
D:----------------------------------------------------------------|
A:----------------------------------------------------------------|
E:----------------------------------------------------------------|

[Riff 2] x1 /w lyrics:

Fly by night away from here, ...

[First half of Riff 2, then last half of Riff 1] x1 /w lyrics:

Fly by night, goodbye ....

[Riff 3] x1 /w lyrics:

Start a new chapter, I find what ....

[Riff 4] x1 /w lyrics:

The change of a season's ....

[Riff 3] x1 /w lyrics:

Quiet and pensive, my thoughts .....

[Riff 4] x1 /w lyrics:

Leaving my homeland, playing a lone .....

[Riff 2] x1 /w lyrics:

Fly by night away from here, ....

[First half of Riff 2, then last half of Riff 1] x1 /w lyrics:

Fly by night, goodbye my ....

[Last half of Riff 1] x1 /w lyrics:

My ship isn't coming and I ....

[Riff 2] x1 /w lyrics:

Fly by night away from ....

[First half of Riff 2, then last half of Riff 1] x1 /w lyrics:

Fly by night, goodbye ....

[Last half of Riff 1] x1 /w lyrics:

My ship isn't coming ....

[Last half of Riff 1] x1 /w lyrics:

My ship isn't coming and I ....[End on D]

Hemispheres apollo
by Rush
[intro]
----------------------------------------------------------------------
---------
-6----5----3----------------------------------------------------------
---------
----------------5----4----2--------------5----4----2------------------
---------
-------------------------------5----3-------------------5----3----2---
---------
----------------------------------------------------------------------
-5----3\-
----------------------------------------------------------------------
---------

riff A
-----------------------------------------------------
-----------------------------------------------------
--------------------------------------------------0--
--------------------------------------2--0-----------
---------3-----2--0---------------3----------2>3-----
--1----1--------------3----1--1----------------------

riff B
--------3--3----8--8----7---5---------3--3----5--5---5---8--------
-1/3----3--3----8--8----8---6----1----3--3----6--6----6--8--10\---
-2/4----4--4----9--9----7---5----2----4--4----5--5----5--9--7\----
------------------------------------------------------------0-----
------------------------------------------------------------------
------------------------------------------------------------------


riff C
---------------------------------------------
---------------------------------------------
---------------------------------------------
-----------------------------2--0-----0--2---
--------3--2--0-----------3--------3---------
--1--1-----------3--1--1---------------------


Pre-Chorus
----0-------------------------3---------------0--------------2--2--3--
2-------
-------3-------------------------6---------------3-----------3--3--3--
3--3>0--
-2--------2--------2/5-----5--------5---------------2--------2--2--2--
2--2>0--
-0--------------0-------3--3---------------------------0-----0--0--0--
0-------
-2-----------1----------3--------------3>0>2--------------1-----------
--------
----------------------------------------------------------------------
--------

Chorus
You can choose.....
--------------------------------------5-------------
--------------------------------------2--2--5---2---
--------7-----------------4-----4--2--2--2--2---2---
-----7-----------2-----4--------2--0--2--2--2---2---
--5--------4--0-----2--------0--2--0--0--0--0---0---
--------------------------------0--2----------------

If you choose...
-----------------------------------------
--------------------------------3--3--2--
--------7-----------4--------2--0--2--2--
-----7-----------4--------2-----0--0--2--
--5--------4--2--------0--------------0--
--------------------------------3--2-----

You can choose ...
------------------------------------------------------
-----------------------------------5--5----5--5----5--
--------7-----------------4--4--2--2--2----2--2----2--
-----7-----------2-----4-----2--0--2--2----2--2----2--
--5--------4--0-----2--------2--0--0--0----0--0----0--
-----------------------------0--2---------------------

I will choose a path..... v-- first time only.
--------------------------------3------2---
--------------------------------3--2---3---
--------7-----------4--------2--0--2---2---
-----7-----------4--------2-----0--2---0---
--5--------4--2--------0-----------0-------
--------------------------------3----------

bridge
---------------------------------------------------------------
-----------------------------------------------------3---------
--------------------------------------3-----------------5--3\--
--------7--5--4--------5--3--2-----------5--3--5--5------------
--5--5-----------3--3-----------5--5---------------------------
---------------------------------------------------------------

---------------------------------------------------------------------
---------------------------------------------------------------------
--10--9--7-------------------12vvvvvvvvvvvvvvvvvvvvvvvvvvvvvvvvv-----
------------10--9--7-------------------------------------------------
----------------------10--8------------------------------------------
---------------------------------------------------------------------

solo
v-p.h. pull up on bar for these notes with the /
--------------------------------------------------------------
--15----------------------------------------------------------
---0--0/--0/--"12"/--0/--"12"/--0/\--13>12>10------12vvvvvvvv-
-----------------------------------------------12-------------
--------------------------------------------------------------
--------------------------------------------------------------

-----------------10---------------------------------------------------
-----
--10--12--13>10----------10--12------13--15vvvvv--13--15vvvvv--13--
15>(17)-
---------------------12----------10-----------------------------------
-----
----------------------------------------------------------------------
-----
----------------------------------------------------------------------
-----
----------------------------------------------------------------------
-----

-------------------------------------15--13>15>13--12--13>15>13-------
----
--15--13vvvvvv--15--15>(17)--15--13------------------------------
13vvvvv--
----------------------------------------------------------------------
----
----------------------------------------------------------------------
----
----------------------------------------------------------------------
----
----------------------------------------------------------------------
----

-----------------------------------------------------------------
--12--13--12-----------------------------------------------------
--------------12>(13)--12>14>12>(13)>0===>4>(5)====>4>0/\/\/\----
-----------------------------------------------------------------
-----------------------------------------------------------------
-----------------------------------------------------------------

--16>15>13------13--17--15>13-----------13--13--------------15>13-----
-
------------15-----------------16>(18)----------13--13--15---------15-
-
----------------------------------------------------------------------
-
----------------------------------------------------------------------
-
----------------------------------------------------------------------
-
----------------------------------------------------------------------
-

--13--17--17--15--13--------------------------------13--17--15--------
-------
----------------------17--17--13>15--18--18>12--15--------------12--
17>13\10-
----------------------------------------------------------------------
-------
----------------------------------------------------------------------
-------
----------------------------------------------------------------------
-------
----------------------------------------------------------------------
-------

----------10>13>10--10---------------------------------------------
--10--13----------------13--10--10------12-------------------------
------------------------------------12------0--9\7---5-----2>0-----
-----------------------------------------------7\5---2--0-------4--
-------------------------------------------------------------------
-------------------------------------------------------------------

----------------------------------------------------------------------
-----
----------------------------------------------------------------------
-----
--0----------5-----------2>0-----0>2>0--4--2--2--0--0--4--2--0--2--4--
5--5-
-----0>2--2-----0--2--3-------3---------------------------------------
-----
----------------------------------------------------------------------
-----
----------------------------------------------------------------------
-----

----------------------------------------------------------------------
----------------------------------------------------------------------
--4--5--7--7--5--7--7--9--9-----9--7--9--10--10--9--10/12--10--10--12-
-----------------------------9----------------------------------------
----------------------------------------------------------------------
----------------------------------------------------------------------

----------------13--13--14--10----------12----------------------------
---
--10>12>10--12------------------13--13------13\-------8-------13--13--
13-
-------------------------------------------------5/7--7--/12--12--12--
12-
-------------------------------------------------7/9--9--/14--14--14--
14-
----------------------------------------------------------------------
---
----------------------------------------------------------------------
---

-----------------10--13>10--10---------10>13--10--------------10--13--
10-
--0--8--8\6--6/-----------------13>10-------------13--10--------------
---
-----7--7\5--5/-------------------------------------------10----------
---
--------8\7--7/-------------------------------------------------------
---
----------------------------------------------------------------------
---
----------------------------------------------------------------------
---

------10--13>(15)--13vvvvvv\--------------------------------------0--
20-
--12-------------------------------8-------13--13--13--0--12\10/--0---
--
------------------------------5/7--7--/12--12--12--12-----12\10/------
--
------------------------------7/9--9--/14--14--14--14-----------------
--
----------------------------------------------------------------------
--
----------------------------------------------------------------------
--

--20--20>(22)--20>(22)vvvvvv--17--17--20--20>(21)--20>(22)--22-
---------------------------------------------------------------
---------------------------------------------------------------
---------------------------------------------------------------
---------------------------------------------------------------
---------------------------------------------------------------

----------------------------------------------------------------------
--
-------8-------13--13--13--0--12-----0--------13>(15)--
13>(15)vvvvvvvv--
--5/7--7--/12--12--12--12-----12--0-----0--0--------------------------
--
--7/9--9--/14--14--14--14---------------------------------------------
--
----------------------------------------------------------------------
--
----------------------------------------------------------------------
--

-------------------10-------------------------------------------------
-
--13--10--13>(14)------12--10>12>10\-------8-------13--13--13--0--12\-
-
--------------------------------------5/7--7--/12--12--12--12-----12\-
-
--------------------------------------7/9--9--/14--14--14--14---------
-
----------------------------------------------------------------------
-
----------------------------------------------------------------------
-

----------12-----13--10--------------10------10-----------------------
--
------10--12-------------13--10----------13------13--10---------------
--
------10------0------------------13----------------------10>12>10--9--
9-
--10------------------------------------------------------------------
--
----------------------------------------------------------------------
--
----------------------------------------------------------------------
--

---------------------------------------------------------
---------------------------------------------------------
--9--7--9--6--6--7--4--5>4\2>0--10--9--7-----------------
------------------------------------------10--9--7-------
----------------------------------------------------10\--
---------------------------------------------------------

outro
--------------------------------------------------------------
-----------------------------------------------------3--------
--------------------------------------3-----------------5--3/-
--------7--5--4--------5--3--2-----------5--3--5--5-----------
--5--5-----------3--3-----------5--5--------------------------
--------------------------------------------------------------

----------------------------------------------------------3--
----------------------------------------------------------3--
--10--9--7------------------------------------------------0--
------------10--9--7---------10--9--7---------------------0--
----------------------10--8------------10--8--7--------------
-------------------------------------------------10--8\---3--



[intro]

[riff A]

[riff B] X 2

[riff C]
There are those who think that life has ....

[riff A]
host of holy horrors to direct ....
[riff A]

[riff C]

[Pre-Chorus] X 2
[Chorus]

[riff A]

[riff B]

[riff C]
There are those who think that they've ....

[riff A]
cards were stacked against them, ....

[riff A]

[riff C]

[Pre-Chorus] X 2

[Chorus]

[bridge]

[solo]

[Pre-Chorus] X 3

[Chorus]

[outro]



Ghost Of A Chance
by Rush.

riff A |--------------------------------------|
-------------------------------------------------
-------------------------------------------------
--4--4--4---4----4--4--4--4-----4-------4--4--4--
--0--2--0---2>3--2--0--2--0-----4-------0--3--0--
-----------------------------0--2----------------
-------------------------------------------------

play riff A again

verse;

p.m.------------------------------------------------------------------
------|

---------------------------------------------0------------------------
------
--------0-----------0------------0--------------0--------0-----------
0------
-----4-----4-----4------------------------4-----------4-----4-----4---
------
--2-----------0---------------4-----4--4-----------2-----------0------
------
-----------------------2----------------------------------------------
--2---
----------------------------------------------------------------------
------

p.m.------------------------------------------------------------------
----|

-----------------0-----------------------------------------------0----
-
-----0--------------0--------0-----------0-----------0--------------0-
-
--------------4-----------4-----4-----4-----------------4-------------
-
--4-----4--------------2-----------0--------------4-----------4-------
-
-----------2--------------------------------2--------------2----------
-
----------------------------------------------------------------------
-

p.m.--------------------------------------------|

-----------------------------------------0-----
--------0-----------0-----------0-----------0--
-----4-----4-----4-----------------4-----------
--2-----------0--------------4-----------------
-----------------------2--------------2--------

play that section again, but let note ring.


Pre chorus is just the intro riff.

Chorus:

(clean)
--9-------------------------------------------------------------------
-------
--10-------------------------------------2----------------------------
-------
--11-------------------------------------2----------------------------
-------
--12-------------------------------------4----------------------------
-------
----------------------------------------------------------------------
-------
----------------------------------------------------------------------
-------


-------------------------------------------------------------2----2---
-
--10--10--10------9----------9-------------------------------2----2---
-
--11--11--11------9----------9-------------------------------3----3---
-
--12--12--12------9----------9----------------------------------------
-
----------------------------------------------------------------------
-
----------------------------------------------------------------------
-

-----------------------------------------------9-----------------
-----------------------------------10------10--10-------------9--
----------2>(2.5)------------------11------11--11-------------9--
----2--4-----------4---------------------------------------------
-----------------------------------------------------------------
-----------------------------------------------------------------

------7---------------------------------------------------------------
-----------9------------------------2---2-------------------10\9-/11--
--9---------------------------------3---3------------11-----11\10/11--
------------------------------------4---4------------12-----12\11/12--
----------------------------------------------------------------------
----------------------------------------------------------------------


----------------------------------------------9--------9-----9---
--2--------------2>5>2---------------------9>10-----9>10-----9---
--3---------------------2--4/6vvvvvvvv---------------------------
--4--------------------------------------------------------------
-----------------------------------------------------------------
-----------------------------------------------------------------

|-- riff A ------------------------
--------|
distortion
-----7----------------------------------------------------------------
---------
------------------------------------10--10>9------------------------9-
---------
--9-----9-------------------------------------11--9vvvvv------9>11----
-11vvvv--
--------------------4\------------------------------------11----------
---------
--------------------4\------------------------------------------------
---------
----------------------------------------------------------------------
---------


Verse two is the sam eas verse one, but when you get too...

"Oh so many..... "

then play;
let ring-----------------------------------------|
-----------------------------------------2-----
--------2-----------2--------2--------------2--
-----4-----4-----4--------4-----4-----4--------
--4-----------2--------------------------------
-----------------------4-----------4-----------
play that twice, then at;


" ... we played."

play

-
--------2-----------2----------------------------
-----4-----4-----4-----------4--------4---4---4--
--4-----------2-----------2-----------0---3---0--
-----------------------4-------------------------
-------------------------------------------------
-------------------------------------------------


Chorus 2

Begining with;

"I don't believe..."

---9--9--9---9-----7-------------------7--7----------------2--
--10----10--10-----7-------------------7----------------2--2--
-------------------9-------------------9----------------3-----
--------------------------------------------------------------
--------------------------------------------------------------
--------------------------------------------------------------



--------------------------9---9---9-----------7-----------------------
---5--5--4--2------------10--10--10--9--------7-----------------------
---6--6--4--2---------------------------------9-----------------------
---------------------------------------------------------------9--11--
---------------------------------------------------------9/11---------
----------------------------------------------------------------------


------------------------------------------9--------7---
-----------------------------------------10>9------7---
---------9--11/13--11vvvvvvvvvv--------------------9---
---9/11------------------------------------------------
-------------------------------------------------------
-------------------------------------------------------

--------------------2------------------------------9---9------------
--------------------2-----------------------------10--10--9------7--
--------------------3------------4---------------------------11--9--
----/11-----------------------------4--2----------------------------
--------------------------------------------------------------------
--------------------------------------------------------------------



--------7--------------2---------------2-- riff A twice.
--------------------------2------------2--
----9------9------------------------------
------------------------------------------
------------------------------------------
------------------------------------------


solo
-----------------------------------------------------------
--9--10---9--12vvvvvvvv---10--12/14---12--14/17vvvvvvvvv\--
-----------------------------------------------------------
-----------------------------------------------------------
-----------------------------------------------------------
-----------------------------------------------------------

----------------14-----------14------14--17vvv--17>14------14---------
-
---------14>18------17>(19)------18--------------------17------
17>(19)-
--14>16---------------------------------------------------------------
-
----------------------------------------------------------------------
-
----------------------------------------------------------------------
-
----------------------------------------------------------------------
-


--14---------14--14---------------------------------------------
------17>14----------17>14------14--------------17--14--17--14--
----------------------------16------16>(18)---------------------
----------------------------------------------------------------
----------------------------------------------------------------
----------------------------------------------------------------

---------------------------------------------------------------------
--14----------17-----------------------------------14----------------
------16--14-----------------------------13>14>16------16>14vvvvvvv--
------------------16vvvvvvvv\-----14>16------------------------------
---------------------------------------------------------------------
---------------------------------------------------------------------

p.h.
v----v
---------------------------------------------------------------------
----------14--12--14--------------------------------------14--17-----
---13>14-------------------13--13--11------------16>(18)----------14-
-----------------------11--------------14vvvvvv----------------------
---------------------------------------------------------------------
---------------------------------------------------------------------

----------------------------14--17--16>12--14--------------
----------------14--15--17---------------------14vvvvvvv\--
--16/18vvvvvv\---------------------------------------------
-----------------------------------------------------------
-----------------------------------------------------------
-----------------------------------------------------------

--------------------------14--17---14--16--17vvvvv--16--17--19--16-
----------------14>16>17-------------------------------------------
---------14>16-----------------------------------------------------
--14>16------------------------------------------------------------
-------------------------------------------------------------------
-------------------------------------------------------------------

--19--19>(21)--19>(21)>19--16--17--19--19>(21)--19>(21)--
19>(21)vvvvvvvvv--
----------------------------------------------------------------------
-----
----------------------------------------------------------------------
-----
----------------------------------------------------------------------
-----
----------------------------------------------------------------------
-----
----------------------------------------------------------------------
-----


outro:
---------------------------------------------------
---------------------------------------------------
---11/13--9------13/14--13--13--11/13vvvvvvvvvv----
-------------11------------------------------------
---------------------------------------------------
---------------------------------------------------

---------14-----------14--------------------------------
-------------17>(19)------17vvvvvvv---14>12>14--12vvvv--
--14>16-------------------------------------------------
--------------------------------------------------------
--------------------------------------------------------
--------------------------------------------------------

--17>14--14---14--12--14--12vvv--14>(16)vvvvvvvvvv--12--14vvvvvv--
------------------------------------------------------------------
------------------------------------------------------------------
------------------------------------------------------------------
------------------------------------------------------------------
------------------------------------------------------------------

slow bend.
--14>(15)>14>12------12--14>(15)>14--14--12vvvvvvvv----
-----------------14------------------------------------
-------------------------------------------------------
-------------------------------------------------------
-------------------------------------------------------
-------------------------------------------------------

riff A till end.





Hemispheres TAB - RUSH

This is how I play Hemispheres, Book I. It is rough around the edges
and I'm far too lazy to transcribe an 18 minute song note for note,
but all
of the relevant parts are in here. Any
suggestions/comments/corrections
may be sent to:
anthonyz@protected.olga.net

Music and Lyrics by Lee, Lifeson, and Peart
Transcribed by Tony Zimmermann


F#7add4 Repeat 2 previous measures

---0-----------|--0--------0--|----------------|------------------- ||
---0-----------|--0--------0--|--------------- / / ---------------- ||
---3-----------|--3--------3--|----------- o / / o -------------o ||
---4-----------|--4--------4--|------------- / / -----------------o ||
---4-----------|--4--------4--|----------------|------------------- ||
---2-----------|--2--------2--|----------------|------------------- ||

1 2 3 4 1 2 3 4


Asus2/E Csus2/G F5 G A5 G
--0----|-------|--3----|------|--------3------|----------3----------|
--0----|-------|--3----|------|--------3------|----------3----------|
--2----|---%---|--5----|---%--|--------0------|--2-------0----------|
--2----|-------|--5----|------|---3----0------|--2-------0----------|
--0----|-------|--3----|------|---3----2------|--0-------2----------|
--0----|-------|--3----|------|---1----3------|----------3----------|


4/4 3/4 4/4
-----------------|-------------|-----------------|-------------------|
-----------------|-------------|-----------------|-------------------|
-----------------|-------------|-----------------|-------------------|
-----------------|-------------|---0-------------|---0---------------|
--2-----------5--|---2---------|------0---1------|-------0---1-------|
------2---3------|------2--3---|-------------1---|---------------1---|


6/8
------------0--------|---|---|---|----------0--------|---|---|---|
---------------0-----|---|---|---|-------------4-----|---|---|---|
------------------3--|-%-|-%-|-%-|----------------4--|-%-|-%-|-%-|
(2x)
---------------------|---|---|---|-------------------|---|---|---|
---------------------|---|---|---|--2----2-----------|---|---|---|
---2-----2-----------|---|---|---|-------------------|---|---|---|
1 2 3 4 5 6


-----------0--------|---|---|---|----------0--------|----------------|
--------------2-----|---|---|---|-------------7-----|----------------|
-----------------4--|-%-|-%-|-%-|----------------7--|--------%-------|
--------------------|---|---|---|-------------------|----------------|
---0----0-----------|---|---|---|--5----5-----------|----------------|
--------------------|---|---|---|-------------------|----------------|
sim.


7/8 6/8
--------------|---------------------|---------------------|
--------------|---------------------|---------------------|
--------------|---------------------|---4--2--0-----------|
--------------|---7--5--4-----------|------------4--2--0--|
--5---5--5--5-|------------7--5--4--|---------------------|
--------------|---------------------|---------------------|


---3-----3-----3--3--|---2---------|----------------------------------
---3-----3-----3--3--|---2---------|----------------------------------
---4-----4-----4--4--|---2------%--|------------0----------------2----
---5-----5-----5--5--|-(4/2?)------|---------4-----4-----------2---2--
---5-----5-----5--5--|---4---------|------5-----------5------4-------4
---3-----3-----3--3--|---2---------|---3-------------------2----------

----------------------------|-----------------------------------------
--------------------2-------|------------------------------0----------
-------0--------------2-----|----------------0-----------0------------
-----4---4--------2-----2---|--------------2---2-------2--------------
---5-------5----4-----------|-----0------3-----------3----------------
-3------------2-------------|---3---3--1-----------1------------------

---------------------|----------------|--------------|----------------
---------------------|----------------|--------------|----------------
---------------------|----------------|--------------|----------------
---------------------|-----------<12>-|--------------|----------------
---<5>---------------|--<5>-----------|-<5>------<4>-|----------------
-------<4>--<7>--<5>-|-----<4><7>-----|----<4><7>----|----------------

----------------------------------------------------------------------
--------------<12>----------------------------------------------------
----------------------------------------------------------------------
----------------------------------------------------------------------
--<5>-----<5>--------<5>---------<4>-<5>------------------------------
------<4>----------------<4>-<7>---------<4>-<7>----------------------

----------------------------------------------------------------------
------------------------9---H--10--10--9----7--H--8--8-P-7--8-7-------
--2---4---2-------------9------9----9--9----7-----7--7---7--7-7-------
--2---4---2-------------9---H--11--11--9----7--H--9--9-P-7--9-7-------
--0---2---4--H5--4-2--------------------------------------------------
---------------------0------------------------------------------4-5-7-

-------------------------------//---//--------------------------------
----------------------------------------------------------------------
-----------2------2----4------2---2-----------------------------------
--7--6-----2------2-%--4-%----2---4-----7--6--------------------------
--------7--4------0----2------4---5------------7----------------------
----------------------------------------------------------------------

-------------0--------------------------------------------------------
---------9---0--------------------------------------------------------
---------9---3---7--6--4--2--4--2-------------------------------------
---------9---4---7--7--4--2--4--2-------------------------------------
---------7---4---5--4--2--0--2--4--5--4-------------------------------
--0---0------2---------------------------0----------------------------

------------------------------------------|------3--2------0-------0--
--------3---------------------------------|------3--3----0---0---0---0
-----2-----------0---------1--------------|------0--4--2-------2------
--0-----------4---------2---------2-------|------0--4--3-------2------
-----------0---------2------------------4-|------2--2--3-------0------
-------------------------------4-----0----|--0-2-3-----1--------------

F G A G
E
-3--1--3-----3-|-----0--|-----0----|-----0----|-------0-------|-------
-3--1--3-----3-|------0-|-------4--|-------2--|----------0----|-------
-5--2--0--2--0-|-------3|--------4-|---------4|-------------0-|-------
-5--3--0--2--0-|--------|----------|----------|---------------|-------
-3--3--2--0--2-|--------|-2-2------|-0-0------|-3--3----------|-------
-3--1--3-----3-|-2-2----|----------|----------|---------------|-------

-3---2---------------|---6-----5--------------------------------------
-3---2---------------|---6-----5--------------------------------------
-4-%-2-%----0-----2--|---7--%--5--%--------0------------5-------------
-5---2-----4-4---2-2-|---8-----5---------7---7--------5---5-----------
-5---4----5-----4----|---8-----7-------8-------8----7-----------------
-3---2---3-----2-----|---6-----5-----6------------5-------------------
sim.

------------------------|--------------------------------------2------
------------------------|-----5--(5)-(5)-(5)-(5)-----------------5-2--
-4----6----4------------|----(4)--4--(4)--4--(4)--(4)--4--3-----------
-4----6----4------------|-----F--rel--F--rel--F----F--rel----4-------4
-2----4----6---7--6--4--|---------------------------------------------
------------------------|---------------------------------------------

----------------------------------------------------------------------
--(17)----17---15----14-H-15-P-14-----14------------------------------
---F-------------------------------16----15----15--16--(18)--(18)-(18)
--------------------------------------------------------3/2---3/2--3/2
----------------------------------------------------------------------
----------------------------------------------------------------------

--------------------------------17------------------------------------
------------------------------------14-15-17-(17)-17-15H17P15-14H15P14
--15--16--15-H-16-P-15--\--9-------------------F----------------------
----------------------------------------------------------------------
----------------------------------------------------------------------
----------------------------------------------------------------------

----------------------------------------------------------------------
--14--15--17--(17)-(17)-(17)-17-----15-H-17-P-15---\--14--15--14------
----------------F----F----F---------------------------------------16--
----------------------------------------------------------------------
----------------------------------------------------------------------
----------------------------------------------------------------------

----------------------------------------------------------------------
--------7-------------------------------------------------------------
--(6)-------(6)---6---4-H-6-P-4-\-3-H-4-P-3-\-1-H-3-P-1---------------
---F--hold-------rel--------------------------------------4-----------
----------------------------------------------------------------------
----------------------------------------------------------------------

----------------------------------------------------------------------
------------------------------------4--------4--5-----4--5--(5)-------
---------3--4-----3--4--6--3--4--6-----4--6--------6---------F--------
---4--6--------6------------------------------------------------------
----------------------------------------------------------------------
----------------------------------------------------------------------
Note: The majority of runs aren't exact, but outline the notes
played.

--0---3-----3-----3--|---------------------------|------------[-----]
--0---3-----3-----3--|---------------------------|------------[-----]
--2---5-----0--2--0--|-----4------------------7--|----4-------[---7-]
--2---5--3--0--2--0--|---4-------4------5---7----|---4---4--5-[--7--]
--0---3--3--2--0--2--|-2-------4------5---5------|--2---4--5--[-5---]
------3--1--3-----3--|-------2------3------------|-----2--3---[-----]

----------------------------------------------------------------------
-----3-------------------6--------------------------------------------
---2-------2------3----5----------------------------------------------
-0-------2------3----3------------------------------------------------
-------0------1-------------------------------------------------------
----------------------------------------------------------------------

--------------------------------------|-------------------------------
--------------------------------------|-------------------------------
--4--2--0-----------------0--2--0-----|--4--2--0----------------------
-----------4--2--0--2--4-----------4--|-----------4--2--0--2--4--2--0-
--------------------------------------|-------------------------------
--------------------------------------|-------------------------------

--------------------------------------|-------------------------------
--------------------------------------|-------------------------------
--------------------------------------|-------------------------------
----------------------------3--2--0---|----------------------------3-2
-------0-----1--0--3--1--0------------|--------0-----1--0--3--1--0----
-1--3-----3---------------------------|--1--3-----3-------------------

--------------------------------------(3)----6-----0------------------
--------------------------------------(4)----7-----0------------------
--------------------------------7------5-----8-----0------------------
----------------------4--5------5--8---5-----8-----4------------------
---------2--3---5--6---------------6---3-----6-----2------------------
---3--4--------------------------------------------0------------------

Chords in Part IV: Cygnus :

D G Em Bm
G D A D

A C F E(maj)

----------------------------------------------------------------------
----------------------------------------------------------------------
------------11--------6--7----6--7--9--7--6-H-7-P-6-------------------
------2------------9-------------------------------9-7----------------
------------------------------------------------------9-9-H-10-P-9--7-
--0-------------------------------------------------------------------

----------------------------------------------------------------------
---------------------(15)--(15)--15--15--14--------------------1/4----
------------9-H-11-----F----1/2--------------16--14--14H16P14-(12)----
--(<9>)--9---------------------------------------------------------14-
----F---rel-----------------------------------------------------------
---PH-----------------------------------------------------------------

F C C G
Bb F C G


The Sphere:
D G/D(VII) Bm Asus A G/D(VII) is fingered xx0787
C#m G E F#
D G Bm A
C#m G Bm
A G F G D


hemispheres_apollo

Rush
[intro]
----------------------------------------------------------------------
---------
-6----5----3----------------------------------------------------------
---------
----------------5----4----2--------------5----4----2------------------
---------
-------------------------------5----3-------------------5----3----2---
---------
----------------------------------------------------------------------
-5----3\-
----------------------------------------------------------------------
---------

riff A
-----------------------------------------------------
-----------------------------------------------------
--------------------------------------------------0--
--------------------------------------2--0-----------
---------3-----2--0---------------3----------2>3-----
--1----1--------------3----1--1----------------------

riff B
--------3--3----8--8----7---5---------3--3----5--5---5---8--------
-1/3----3--3----8--8----8---6----1----3--3----6--6----6--8--10\---
-2/4----4--4----9--9----7---5----2----4--4----5--5----5--9--7\----
------------------------------------------------------------0-----
------------------------------------------------------------------
------------------------------------------------------------------


riff C
---------------------------------------------
---------------------------------------------
---------------------------------------------
-----------------------------2--0-----0--2---
--------3--2--0-----------3--------3---------
--1--1-----------3--1--1---------------------


Pre-Chorus
----0-------------------------3---------------0--------------2--2--3--
2-------
-------3-------------------------6---------------3-----------3--3--3--
3--3>0--
-2--------2--------2/5-----5--------5---------------2--------2--2--2--
2--2>0--
-0--------------0-------3--3---------------------------0-----0--0--0--
0-------
-2-----------1----------3--------------3>0>2--------------1-----------
--------
----------------------------------------------------------------------
--------

Chorus
You can choose.....
--------------------------------------5-------------
--------------------------------------2--2--5---2---
--------7-----------------4-----4--2--2--2--2---2---
-----7-----------2-----4--------2--0--2--2--2---2---
--5--------4--0-----2--------0--2--0--0--0--0---0---
--------------------------------0--2----------------

If you choose...
-----------------------------------------
--------------------------------3--3--2--
--------7-----------4--------2--0--2--2--
-----7-----------4--------2-----0--0--2--
--5--------4--2--------0--------------0--
--------------------------------3--2-----

You can choose ...
------------------------------------------------------
-----------------------------------5--5----5--5----5--
--------7-----------------4--4--2--2--2----2--2----2--
-----7-----------2-----4-----2--0--2--2----2--2----2--
--5--------4--0-----2--------2--0--0--0----0--0----0--
-----------------------------0--2---------------------

I will choose a path..... v-- first time only.
--------------------------------3------2---
--------------------------------3--2---3---
--------7-----------4--------2--0--2---2---
-----7-----------4--------2-----0--2---0---
--5--------4--2--------0-----------0-------
--------------------------------3----------

bridge
---------------------------------------------------------------
-----------------------------------------------------3---------
--------------------------------------3-----------------5--3\--
--------7--5--4--------5--3--2-----------5--3--5--5------------
--5--5-----------3--3-----------5--5---------------------------
---------------------------------------------------------------

---------------------------------------------------------------------
---------------------------------------------------------------------
--10--9--7-------------------12vvvvvvvvvvvvvvvvvvvvvvvvvvvvvvvvv-----
------------10--9--7-------------------------------------------------
----------------------10--8------------------------------------------
---------------------------------------------------------------------

solo
v-p.h. pull up on bar for these notes with the /
--------------------------------------------------------------
--15----------------------------------------------------------
---0--0/--0/--"12"/--0/--"12"/--0/\--13>12>10------12vvvvvvvv-
-----------------------------------------------12-------------
--------------------------------------------------------------
--------------------------------------------------------------

-----------------10---------------------------------------------------
-----
--10--12--13>10----------10--12------13--15vvvvv--13--15vvvvv--13--
15>(17)-
---------------------12----------10-----------------------------------
-----
----------------------------------------------------------------------
-----
----------------------------------------------------------------------
-----
----------------------------------------------------------------------
-----

-------------------------------------15--13>15>13--12--13>15>13-------
----
--15--13vvvvvv--15--15>(17)--15--13------------------------------
13vvvvv--
----------------------------------------------------------------------
----
----------------------------------------------------------------------
----
----------------------------------------------------------------------
----
----------------------------------------------------------------------
----

-----------------------------------------------------------------
--12--13--12-----------------------------------------------------
--------------12>(13)--12>14>12>(13)>0===>4>(5)====>4>0/\/\/\----
-----------------------------------------------------------------
-----------------------------------------------------------------
-----------------------------------------------------------------

--16>15>13------13--17--15>13-----------13--13--------------15>13-----
-
------------15-----------------16>(18)----------13--13--15---------15-
-
----------------------------------------------------------------------
-
----------------------------------------------------------------------
-
----------------------------------------------------------------------
-
----------------------------------------------------------------------
-

--13--17--17--15--13--------------------------------13--17--15--------
-------
----------------------17--17--13>15--18--18>12--15--------------12--
17>13\10-
----------------------------------------------------------------------
-------
----------------------------------------------------------------------
-------
----------------------------------------------------------------------
-------
----------------------------------------------------------------------
-------

----------10>13>10--10---------------------------------------------
--10--13----------------13--10--10------12-------------------------
------------------------------------12------0--9\7---5-----2>0-----
-----------------------------------------------7\5---2--0-------4--
-------------------------------------------------------------------
-------------------------------------------------------------------

----------------------------------------------------------------------
-----
----------------------------------------------------------------------
-----
--0----------5-----------2>0-----0>2>0--4--2--2--0--0--4--2--0--2--4--
5--5-
-----0>2--2-----0--2--3-------3---------------------------------------
-----
----------------------------------------------------------------------
-----
----------------------------------------------------------------------
-----

----------------------------------------------------------------------
----------------------------------------------------------------------
--4--5--7--7--5--7--7--9--9-----9--7--9--10--10--9--10/12--10--10--12-
-----------------------------9----------------------------------------
----------------------------------------------------------------------
----------------------------------------------------------------------

----------------13--13--14--10----------12----------------------------
---
--10>12>10--12------------------13--13------13\-------8-------13--13--
13-
-------------------------------------------------5/7--7--/12--12--12--
12-
-------------------------------------------------7/9--9--/14--14--14--
14-
----------------------------------------------------------------------
---
----------------------------------------------------------------------
---

-----------------10--13>10--10---------10>13--10--------------10--13--
10-
--0--8--8\6--6/-----------------13>10-------------13--10--------------
---
-----7--7\5--5/-------------------------------------------10----------
---
--------8\7--7/-------------------------------------------------------
---
----------------------------------------------------------------------
---
----------------------------------------------------------------------
---

------10--13>(15)--13vvvvvv\--------------------------------------0--
20-
--12-------------------------------8-------13--13--13--0--12\10/--0---
--
------------------------------5/7--7--/12--12--12--12-----12\10/------
--
------------------------------7/9--9--/14--14--14--14-----------------
--
----------------------------------------------------------------------
--
----------------------------------------------------------------------
--

--20--20>(22)--20>(22)vvvvvv--17--17--20--20>(21)--20>(22)--22-
---------------------------------------------------------------
---------------------------------------------------------------
---------------------------------------------------------------
---------------------------------------------------------------
---------------------------------------------------------------

----------------------------------------------------------------------
--
-------8-------13--13--13--0--12-----0--------13>(15)--
13>(15)vvvvvvvv--
--5/7--7--/12--12--12--12-----12--0-----0--0--------------------------
--
--7/9--9--/14--14--14--14---------------------------------------------
--
----------------------------------------------------------------------
--
----------------------------------------------------------------------
--

-------------------10-------------------------------------------------
-
--13--10--13>(14)------12--10>12>10\-------8-------13--13--13--0--12\-
-
--------------------------------------5/7--7--/12--12--12--12-----12\-
-
--------------------------------------7/9--9--/14--14--14--14---------
-
----------------------------------------------------------------------
-
----------------------------------------------------------------------
-

----------12-----13--10--------------10------10-----------------------
--
------10--12-------------13--10----------13------13--10---------------
--
------10------0------------------13----------------------10>12>10--9--
9-
--10------------------------------------------------------------------
--
----------------------------------------------------------------------
--
----------------------------------------------------------------------
--

---------------------------------------------------------
---------------------------------------------------------
--9--7--9--6--6--7--4--5>4\2>0--10--9--7-----------------
------------------------------------------10--9--7-------
----------------------------------------------------10\--
---------------------------------------------------------

outro
--------------------------------------------------------------
-----------------------------------------------------3--------
--------------------------------------3-----------------5--3/-
--------7--5--4--------5--3--2-----------5--3--5--5-----------
--5--5-----------3--3-----------5--5--------------------------
--------------------------------------------------------------

----------------------------------------------------------3--
----------------------------------------------------------3--
--10--9--7------------------------------------------------0--
------------10--9--7---------10--9--7---------------------0--
----------------------10--8------------10--8--7--------------
-------------------------------------------------10--8\---3--



[intro]

[riff A]

[riff B] X 2

[riff C]
There are those who think that life ....

[riff A]
host of holy horrors ....

[riff A]

[riff C]

[Pre-Chorus] X 2
[Chorus]

[riff A]

[riff B]

[riff C]
There are those who think that they've ....

[riff A]
cards were stacked against them, ...

[riff A]

[riff C]

[Pre-Chorus] X 2

[Chorus]

[bridge]

[solo]

[Pre-Chorus] X 3

[Chorus]

[outro]


Rush - IV Armageddon - "The Battle of Heart and Mind"

[Riff 1] - Freely
e:----------------------|---------------|---------------------|
B:----------------------|---------------|---------------------|
G:--4--4-------------7~-|-4--4----------|o--7--7-------------o|
D:--4-----4--4---5~--7~-|-4----4-4-4--5~|o--7----7-7-8~------o|
A:----------------------|---------------|---------------8~----|
E:----------------------|---------------|---------------------|

[Riff 2] - Freely
e:-----------------|----------------|--------------|------------------
|
B:-----------------|----------------|--------------|------------------
|
G:-4--4---------7~-|-4--4--------7~-|-4-4----------|o-7--7-----------
o|
D:-4----4-4-5~--7~-|-4----4-4-5~-7~-|-4---4-4-4-5~-|o-7----7-7-8~----
o|
A:-----------------|----------------|--------------|--------------8~--
|
E:-----------------|----------------|--------------|------------------
|

[Riff 3] [Riff 4]
e:--0~---0------|-0~---0------|--------------------------------------|
B:--0~-----0----|-0~-----0----|-------1~--1~--1~---------------------|
G:--6~----------|-0~----------|---2~--0~--2~--0~---------------------|
D:--7~----------|-2~----------|---3~--2~--2~--2~---------------------|
A:--7~----------|-3~----------|---3~--3~--0~--3~---------------------|
E:--5~----------|-------------|---1~--3~--1~--3~---------------------|

[Riff 5a] [Riff 5b]
e:--------0--------|---------0--------|--------0-------|-------0------
|
B:------------0----|--------------0---|------------0---|-----------0--
|
G:o---------3-----o|o----------3-----o|o---------8----o|o--------8---
o|
D:o---------------o|o----------------o|o--------------o|o------------
o|
A:--4--4-----------|---4--4-----------|---9--9---------|--9--9--------
|
E:--2--2-----------|---2--2-----------|---7--7---------|--7--7--------
|

[Riff 5c] [Riff 5d]
e:---------0-------|---------0-------|--------0-------|--------0------
|
B:-------------0---|-------------0---|----------0-----|----------0----
|
G:o----------6----o|o----------6----o|o--------------o|o-------------
o|
D:o---------------o|o---------------o|o-7--7------7--o|o--7--7-----7-
o|
A:---7--7----------|---7--7----------|--5--5----------|---5--5--------
|
E:---5--5----------|---5--5----------|----------------|---------------
|


Progression:

[Riff 1] x2
[Riff 3] x1
[Riff 4] x1

[Guitar Interlude] - play the whole thing twice

e:--------------------------------------|-----------------------------
--|
B:--------------------------------------|-----------------------------
--|
G:--4--2--0-----------------0--2--0-----|--4--2--0--------------------
--|
D:-----------4--2--0--2--4-----------4--|-----------4--2--0--2--4--2--
0-|
A:--------------------------------------|-----------------------------
--|
E:--------------------------------------|-----------------------------
--|

e:--------------------------------------|-----------------------------
--|
B:--------------------------------------|-----------------------------
--|
G:--------------------------------------|-----------------------------
--|
D:----------------------------3--2--0---|----------------------------
3-2|
A:-------0-----1--0--3--1--0------------|--------0-----1--0--3--1--0--
--|
E:-1--3-----3---------------------------|--1--3-----3-----------------
--|

[Riff 3] x1
[Riff 4] x1

[Riff 2] x1 w/ lyrics:

The Universe divided as the ....

With [Riff 3] x1:

Our world was torn asunder into ...[Riff 4] x1

[Riff 5a] x1

e:---------0-------|--------0-----------|
B:-------------0---|------------0--0.---|
G:o----------8----o|----------8---------|
D:o---------------o|--------------------|
A:---9--9----------|--9--9--------------|
E:---7--7----------|--7--7--------------|

[Riff 2] x1 w/ lyrics:

Some fought themselves, some ....

With [Riff 3] x1:

Their spirits were ....[Riff 4] x1

[Riff 5a] x1
[Riff 5b] x1
[Riff 5a] x1
[Riff 5b] x1

[Riff 5a] x1 then [Riff 5b] x1 w/ lyrics:

Some who did not fight ...

[Riff 5a] x1 then [Riff 5b] x1 w/ lyrics:

My Rocinante sailed by night ...

[Riff 5c] x1 then [Riff 5d] x1 w/ lyrics:

To the heart of Cygnus' ...

[Riff 5c] x1 then [Riff 5d] x1 w/ lyrics:

Spiralled through that ....

[Riff 5a] x1
[Riff 5b] x1

Hit A twice [x0222x] then C twice [x32010] (might also be Cmaj7
[x32000])

[Riff 4] x1

Segue:
G Eb Cm
e:---------------------3---3---3~------------------------------------|
B:---------------------3---4---4~------------------------------------|
G:---------------------4---3---5~------------------------------------|
D:---------------------5---5---5~------------------------------------|
A:-----2-3-5-6-9-10\---5-------3~------------------------------------|
E:-3-4-----------------3---------------------------------------------|














Rush - V Cygnus - Bringer of Balance

[Intro]
Ebm Em9 Em
e:---6~----0~--------0~--------------------|
B:---7~----0~--------0~--------------------|
G:---8~----0~--------0~--------------------|
D:---8~----4~--------2~--------------------|
A:---6~----2~--------2~--------------------|
E:---------0~--------0~--------------------|

[Riff 1] (notes in ()'s are overdubbed)
e:-----------------------(4)---------|
B:---------------------(5)-(5)-------|
G:o------------------(4)--1--(4)----o|
D:o-------7~---2--------2-----------o|
A:--4-5-7----0~--4-5--2--------------|
E:--------------------------4~--0~---|


Progression:

[Intro] x1

Keyboard arr. for guitar:

(D) G
I have mem'ry and awareness, but ...
Em Bm
As a disembodied spirit, I ...
G D
I have passed into Olympus, as ...
A D
To the City of Immortals, ...

A
I see the Gods in ...
C
Thunderbolts ...
F
I cannot move, I ...
E
I feel a silent ...

[Riff 1] x4 w/ lyrics:

Then all at once the ...

[Riff 1] x1

Play this 2 times with lyrics below:

E A F# D A7 Bm A/C# A5 E
e:--0~----------------------------------------------------------0~---|
B:--0~-----2------------------------3---2---3-------------------0~---|
G:--1~-----2----3~--3-3-3-3-3-3-3---2---0---4--2--2--2-2--------1~---|
D:--2~-----2----4~--4-4-4-4-4-4-4---0---2---4--2--2--2-2--------2----|
A:--2~-----0----4~--4-4-4-4-4-4-4-----------2--4--4--0-0--------2----|
E:--0~----------2~--2-2-2-2-2-2-2-------------------------0~--0-0----|
A F# D A7 Bm A/C# A
e:-------------------------------------------------------------------|
B:---2-----------------------3---2---3----------2--2-----------------|
G:---2---3~--3-3-3-3-3-3-3---2---0---4---2--2---2--2-----------------|
D:---2---4~--4-4-4-4-4-4-4---0---2---4---2--2---2--2-----------------|
A:---0---4~--4-4-4-4-4-4-4-----------2---4--4---0--0-----------------|
E:-------2~--2-2-2-2-2-2-2-------------------------------------------|

E A F# D A7 Bm A/C# A5
Apollo was astonished; ...
E A F# D A7 Bm A
But they heard my story further, ...
E A F# D A7 Bm A/C# A5
Looking down from Olympus on a ...
E A F# D A7 Bm A/C# A
Its surface splintered ....

[Guitar Solo] - As in previous solo, there may be some legato hand
sliding that sounds like pick sliding.

(Rhythm guitar plays above riff 2 times)

e:--------------------------------------------------------------------
-|
B:--------------------------------------------------------------------
-|
G:-----------11~------6--7~---6--7--9--7--6h7p6-----------------------
-|
D:------2~---------9-----------------------------9-7------------------
-|
A:----------------------------------------------------9-9h10p9------
7~-|
E:--0~----------------------------------------------------------------
-|

e:--------------------------------------------------------------------
--|
B:------------------x-15b17---15---15--15--14-------------------------
--|
G:--------------11~----------------------------16--14--14h16p14--12---
--|
D:--9p7--[9]b11------------------------------------------------------
14-|
A:--------------------------------------------------------------------
--|
E:--------------------------------------------------------------------
--|

[Riff 1] x2 w/ lyrics:

They sat a while in silence, ....

(With lyrics below:)

G B F
e:----3~------------1~------|
B:----3~-----4~-----1~------|
G:----4~-----4~-----2~------|
D:----5~-----4~-----3~------|
A:----5~-----2~-----3~------|
E:----3~------------1~------|

F#7/11 A9
e:----0~---------0~------0~-----|---0~-----0~---0-----|
B:----0~---------0~------0~-----|---0~-----0~---0-----|
G:o---3~---------3~------3~----o|---6~-----6~---6-----|
D:o---4~---------4~------4~----o|---7~-----7~---7-----|
A:----4~---------4~------4~-----|---7~-----7~---7-----|
E:----2~---------2~------2~-----|---5~-----5~---5-----|

G BaddC# F F#7/11 A9
"We will call you Cygnus, ...


[Outro] - strum each chord

F C/E C G Bb F C G
e:--1------0--------0------3---|----1--------1-------0--------3------|
B:--1------1--------1------3---|----3--------1-------1--------3------|
G:o-2------0--------0------0---|----3--------2-------0--------0-----o|
D:o-3------2--------2------0---|----3--------3-------2--------0-----o|
A:--3------3--------3------2---|----1--------3-------3--------2------|
E:--1------0---------------3---|-------------1----------------3------|

e:--0~-0--0~-0--|-0~-0--0~-0--|---------------------------------------
|
B:--0~--0-0~--0-|-0~--0-0~--0-|------1~--1~--1--1--1.---2~~~----------
|
G:--6~----6~----|-0~----0~----|--2~--0~--2~--0--0--0.---2~~~----------
|
D:--7~----7~----|-2~----2~----|--3~--2~--2~--2--2--2.---2~~~----------
|
A:--7~----7~----|-3~----3~----|--3~--3~--0~--3--3--3.---0~~~----------
|
E:--5~----5~----|-------------|--1~--3~--1~--3--3--3.-----------------
|
tr


























Rush - III Dionysus - Bringer of Love

[Riff 1]
e:---------------------------------------|-----------------|
B:--0--0--0----0--0--0----0--0--0----0~--|--0--0--0--0--0~-|
G:--0--0--0----4--4--4----0--0--0----4~--|--0--0--0--0--4~-|
D:--4--4--4----2--2--2----4--4--4----2~--|--4--4--4--4--2~-|
A:--2--2--2----4--4--4----2--2--2----4~--|--2--2--2--2--4~-|
E:--3--3--3--2-2--2--2--3-3--3--3--2-2~--|--3--3--3--3--2~-|

[Riff 2a]
e:-----------------------------------------------|
B:-------------------------------------------2---|
G:--------0-----------2-----------0------------0-|
D:------4---4-------2---2-------4---4------2-----|
A:----2-----------4-----------2----------4-------|
E:--3-----------2-----------3----------2---------|

[Riff 2b]
e:------------------------------------------------|
B:--------------------------------------------2~--|
G:--------0-----------2-----------0---------------|
D:------4---4-------2---2-------4---4------2------|
A:----2-----------4-----------2----------4--------|
E:--3-----------2-----------3----------2----------|

[Riff 3]
Bbmaj7 A7sus4
e:---------------------------------------|----------------|
B:---------------------------------------|----------------|
G:--7--7--7----7--7--7----7--7--7----7~--|--7--7--7--7--7~|
D:--7--7--7----5--5--5----7--7--7----5~--|--7--7--7--7--5~|
A:--5--5--5----7--7--7----5--5--5----7~--|--5--5--5--5--7~|
E:--6--6--6--5-5--5--5--6-6--6--6--5-5~--|--6--6--6--6--5~|

[Riff 4a]
e:---------------------------------------------|
B:-----------------------------------------5~--|
G:--------0~---------5~---------0~-------------|
D:------7---7~-----5---5~-----7---7~-----5---5~|
A:----5----------7----------5----------7-------|
E:--6----------5----------6----------5---------|

[Riff 4b] Am7
e:--------------------------------------------------|
B:-------------------------------------5~-----------|
G:--------0~----------5~---------0~----5~-----------|
D:------7---7~------5---5~-----7---7~--5~-----------|
A:----5-----------7----------5---------7~-----------|
E:--6-----------5----------6-----------5~-----------|

[Fill 1] [Fill 2]
e:--------------|---------|
B:--------------|---------|
G:--------------|---------|
D:---7~--6~-----|---------|
A:----------7~--|---------|
E:--------------|-4-5-7.--|

[Riff 5a]
e:-----------------------------------------------|
B:----9--9--9------9--9--9------8--8--8--7-8-7---|
G:----9--9--9------9--9--9------7--7--7--7-7-7---|
D:----9--9--9------9--9--9------7--7--7--7-7-7---|
A:---------------------------5-----------------5-|
E:-0------------0--------------------------------|

[Riff 5b]
e:------------------------------------------------|
B:----9--9--9-----10-10-10-9-----8--8--8--7-8-7---|
G:----9--9--9-----9--9--9--9-----7--7--7--7-7-7---|
D:----9--9--9-----11-11-11-9-----7--7--7--7-7-7---|
A:----------------------------5-----------------5-|
E:-0------------0---------------------------------|

[Riff 6]
e:---------------------------------------------------------|
B:--2-2--2---2--2------------------------------------------|
G:--2-2--2---2--2----2-2-2-2--4-4-4-4----------------------|
D:--2-2--2---2--2----2-2-2-2--4-4-4-4---2-2-2-2-2-2--------|
A:--0-0--0---0--0----0-0-0-0--2-2-2-2---4-2-4-5-4-2--------|
E:---------------------------------------------------0-----|


Progression:

First half of [Riff 1] x1

[Riff 1] x1 w/ lyrics:

"I bring Love to give you solace, in ....
[Riff 2a] x1

[Riff 2b] x1 w/ lyrics:

You need only trust your feelings....

[Riff 3] x1 w/ lyrics:

"I bring Laughter, I bring Music, ....

[Riff 4a] x1

[Riff 4b] x1 w/ lyrics:
Am7
Throw off those chains of Reason and ...

F#7/11 A9
e:----0~---------0~------0~-----|---0~-----0~--0~---|-0~--0-0-0--0-0-
0-0-0-|
B:----0~---------0~------0~-----|---0~-----0~--0~---|-0~--0-0-0--0-0-
0-0-0-|
G:o---3~---------3~------3~----o|---6~-----6~--6~---|-6~--6-6-6--3-3-
3-3-3-|
D:o---4~---------4~------4~----o|---7~-----7~--7~---|-7~--7-7-7--4-4-
4-4-4-|
A:----4~---------4~------4~-----|---7~-----7~--7~---|-7~--7-7-7--4-4-
4-4-4-|
E:----2~---------2~------2~-----|---5~-----5~--5~---|-5~--5-5-5--2-2-
2-2-2-|

[Fill 1] x1

With [Riff 5a] x1:

The cities were abandoned.....[Fill 2]

With [Riff 6] x1:

They danced and lived as brothers; they ....

With [Riff 5a] x1:
[Fill
2]
Food and wine they had ....

With [Riff 6] x1:

The people were contented, and ....

With [Riff 5b] x1:

But the winter fell upon .....[Fill 2]

With [Riff 6] x1:

Bringing wolves and cold .....

e:-----------------|-------------------------|
B:-----------------|-------------------------|
G:--4-4-4----------|-------------------------|
D:--4-4-4----------|-------------------------|
A:--2-2-2--4-4-4-4-|--6-4-6-7-6-4------------|
E:-----------------|-------------------------|

Segue:

e:--0~---0~---0--0~----|---0~--0~--0--0~--|--------------------------|
B:--0~---0~---0--0~----|---0~--0~--0--0~--|--------1~---1~---1~------|
G:--6~---6~---6--6~----|---0~--0~--0--0~--|---2~---0~---2~---0~------|
D:--7~---7~---7--7~----|---2~--2~--2--2~--|---3~---2~---2~---2~------|
A:--7~---7~---7--7~----|---3~--3~--3--3~--|---3~---3~---0~---3~------|
E:--5~---5~---5--5~----|------------------|---1~---3~---1~---3~------|













Rush - I - Prelude

[Intro] - play first part 4 times

F#7/11 A9 Cmaj7
e:----0~---------0~------0~-----|---0----0-0----0-|---0--0----0--0---|
B:----0~---------0~------0~-----|---0--0---0--0---|---0----0--0----0-|
G:o---3~---------3~------3~----o|---6------6------|---0-------0------|
D:o---4~---------4~------4~----o|---7------7------|---2-------2------|
A:----4~---------4~------4~-----|---7------7------|---3-------3------|
E:----2~---------2~------2~-----|---5------5------|------------------|


e:---------------------------------|
B:---------1~---1~----1~-----------|
G:---2~----0~---2~----0~-----------|
D:---3~----2~---2~----2~-----------|
A:---3~----3----0~----3~-----------|
E:---1~----3~---1~----3~-----------|

e:----------------|-------------|-----------------|-------------------
--|
B:----------------|-------------|-----------------|-------------------
--|
G:----------------|-------------|-----------------|-------------------
--|
D:----------------|-------------|-----------------|-------------------
--|
A:-2~-----------5~|--2~---------|--5--------------|----5--------------
--|
E:-----2~--3/-----|------2~-3/--|-----5---6s1~----|-------5--6\-1-1-1-
1-|

[Riff 1] [Riff 2a]
F#7/11 B11
e:--------0--------|---------0--------|--------0-------|-------0------
|
B:------------0----|--------------0---|------------0---|-----------
(0)|
G:o---------3-----o|o----------3-----o|o---------8----o|o--------8---
o|
D:o---------------o|o----------------o|o--------------o|o------------
o|
A:--4--4-----------|---4--4-----------|---9--9---------|--9--9--------
|
E:--2--2-----------|---2--2-----------|---7--7---------|--7--7--------
|

[Riff 2b]
A9 D6/9 D5
e:---------0-------|---------0-------|---------0------|---------------
|
B:-------------0---|-------------(0)-|--------------0-|---------------
|
G:o----------6----o|o----------6----o|o----------11--o|---------------
|
D:o---------------o|o---------------o|o--------------o|---------------
|
A:---7--7----------|---7--7----------|--12-12---------|--12--12--12---
|
E:---5--5----------|---5--5----------|--10-10---------|--10--10--10---
|

[Riff 3a] [Riff 3b]
e:--------------------|-----------------------------|
B:--------------------|-----------------------------|
G:--2--0--------------|--4--2--0--------------------|
D:--------4--2--0-----|-----------4--2--0-----------|
A:(12)-------------4--|-----------------------------|
E:(10)----------------|-----------------------------|

[Riff 4]
Gmaj7 F#7sus4
e:-----------|----------------|
B:--0--0--0--|---0--0--0------|
G:--0--0--0--|---4--4--4------|
D:--4--4--4--|---2--2--2------|
A:--2--2--2--|---4--4--4------|
E:--3--3--3--|---2--2--2--(3)-|

[Riff 5]
e:---------------------------|---------------------------------------|
B:---------------------------|------------------------2~-------------|
G:--------0-----------2------|---------0-----------------0~----------|
D:------4---4-------2---2----|-------4---4------2--------------------|
A:----2-----------4----------|-----2---------------------------------|
E:--3-----------2------------|---3-----------2-----2-----------------|

e:---------------------------|---------------------------------------|
B:---------------------------|------------------------2~-------------|
G:--------0-----------2------|---------0-----------------------------|
D:------4---4-------2---2----|-------4---4------2--------------------|
A:----2-----------4----------|-----2---------------------------------|
E:--3-----------2------------|---3-----------2----2------------------|


Progression:

[Intro] x1

[Riff 1] x1
[Riff 2a] x1
[Riff 1] x1
[Riff 2a] x1
[Riff 2b] x1

[Riff 3a] x1
[Riff 3b] x1

Alternate between [Riff 4] and [Riff 3b] -- 4 times

[Riff 5] x1

[Riff 4] x2
[Riff 3b] x1
[Riff 4] x1
[Riff 3b] x1
[Riff 4] x1

Mid section:

e:-----------------------------------------------------------0~-----|
B:------------------------------0~---------------------0-----0~-----|
G:----------------0~----------0----------0~----------0-------0~-----|
D:--------------2---2~------2----------2---2~------2---------2~-----|
A:------------3-----------3----------3-----------3-----------2~-----|
E:--3-5-3---1-----------1----------1-----------1-------------0~-----|

Harmonics part:

e:---------------------|----------------|--------------|
B:---------------------|----------------|--------------|
G:o-------------------o|----------------|--------------|
D:o-------------------o|-----------<12>-|--------------|
A:---<5>----------<7>--|--<5>-----------|-<5>------<9>-|
E:-------<9>--<7>------|-----<9><7>-----|----<9><7>----|

e:---------------------|----------------|--------------|
B:---------------------|----------------|--------------|
G:o-------------------o|----------------|--------------|
D:o-------------------o|-----------<12>-|--------------|
A:---<5>----------<7>--|--<5>-----------|-<5>------<9>-|
E:-------<9>--<7>------|-----<9><7>-----|----<9><7>----|

[bass enters]
e:---------------------|----------------|--------------|
B:---------------------|----------------|--------------|
G:o-------------------o|----------------|--------------|
D:o-------------------o|-----------<12>-|--------------|
A:---<5>----------<7>--|--<5>-----------|-<5>------<9>-|
E:-------<9>--<7>------|-----<9><7>-----|----<9><7>----|

e:---------------------|----------------|--------------|
B:---------------------|----------------|--------------|
G:o-------------------o|----------------|--------------|
D:o-------------------o|-----------<12>-|--------------|
A:---<5>----------<7>--|--<5>-----------|-<5>------<9>-|
E:-------<9>--<7>------|-----<9><7>-----|----<9><7>----|

[drums enter]
e:-----------------|--------------------|---------------------|
B:-----------------|--------------------|---------------------|
G:o---------------o|--------------------|---------------------|
D:o---------------o|--------------------|----------------<12>-|
A:-<5>--------<7>--|-<5>----------<7>---|--<5>----------------|
E:----<9>-<7>------|-----<9>--<7>-------|------<9>--<7>-------|

e:--------------------|------------------|-----------------|
B:--------------------|------------------|-----------------|
G:--------------------|------------------|-----------------|
D:--------------------|------------------|-----------------|
A:--<5>------<5>-<9>--|-<5>----------<9>-|-<5>-------------|
E:------<9>-----------|-----<9>--<7>-----|-----<9>--<7>----|

Louder/faster part:

A5 B5 E A
e:------------------|---------------|--------------------------------|
B:------------------|---------------|---9-9-9-10-10-10-10-10-9--(0)--|
G:-2-2-2-2--4-4-4-4-|---------------|---9-9-9-9--9--9--9--9--9--(0)--|
D:-2-2-2-2--4-4-4-4-|-2-2-2-2-2-2---|---9-9-9-11-11-11-11-11-9--(0)--|
A:-0-0-0-0--2-2-2-2-|-4-2-4-5-4-2---|--------------------------------|
E:------------------|-------------0~|-0------------------------------|
D
e:-------------------------------------------------------------------|
B:--7--8-8~-8-8-8--7~-8--7-------------------------------------------|
G:--7--7-7~-7-7-7--7~-7--7-------------------------------------------|
D:--7--7-7~-7-7-7--7~-7--7-------------------------------------------|
A:----------------------------5--4-----------------------------------|
E:---------------------------------5--7.-----------------------------|

A A5 B5
e:-------------------------------------------------------------------|
B:--2--2---2---2--2--------------------------------------------------|
G:--2--2---2---2--2----2-2-2-2--4-4-4-4------------------------------|
D:--2--2---2---2--2----2-2-2-2--4-4-4-4----------------7--6----------|
A:--0--0---0---0--0----0-0-0-0--2-2-2-2-----4.---5.---------7\-------|
E:----------------------------------------------------------------0--|

[Riff 6] /w verses as below:
E A F# D A7 Bm A/C# A5 E
e:--0~----------------------------------------------------------0~---|
B:--0~-----2------------------------3---2---3-------------------0~---|
G:--1~-----2----3~--3-3-3-3-3-3-3---2---0---4--2--2--2-2--------1~---|
D:--2~-----2----4~--4-4-4-4-4-4-4---0---2---4--2--2--2-2--------2----|
A:--2~-----0----4~--4-4-4-4-4-4-4-----------2--4--4--0-0--------2----|
E:--0~----------2~--2-2-2-2-2-2-2-------------------------0~--0-0----|
A F# D A7 Bm A/C# A
e:-------------------------------------------------------------------|
B:---2-----------------------3---2---3----------2--2-----------------|
G:---2---3~--3-3-3-3-3-3-3---2---0---4---2--2---2--2-----------------|
D:---2---4~--4-4-4-4-4-4-4---0---2---4---2--2---2--2-----------------|
A:---0---4~--4-4-4-4-4-4-4-----------2---4--4---0--0-----------------|
E:-------2~--2-2-2-2-2-2-2-------------------------------------------|

E A F# D A7 Bm A/C# A5
When our weary world was young, the ...

E A F# D A7 Bm A/C# A A
The Gods of Love and Reason ....

[Riff 7] x2 (shown below)

(notes in ()'s are overdubbed)
D E
e:------------------------(4)---------|
B:----------------------(5)-(5)-------|
G:o-------------------(4)--1--(4)----o|
D:o--------7~---2--------2-----------o|
A:---4-5-7----0---4-5--2--------------|
E:---------------------------4~--0~---|

[Riff 7] x8 w/ lyrics:

They battled through the ages, but still ....

G BaddC# F A9
e:--3~-3~----------------1~----1----0~-----0----|--3~----3------------
--|
B:--3~-3~--7~-----7------1~------1--0~-------0--|--3~------3---7~--7--
7-|
G:--4~-4~--8~------------2~---------6~----------|--4~----------8~--8--
8-|
D:--5~-5~--11~------11---3~--3------7~--7-------|--5~--5-------11~-11-
11|
A:--5~-5~--9~---9--------3~---------7~----------|--5~----------9~--9--
9-|
E:--3~-3~--7-------------1~---------5~----------|--3~----------7~--7--
7-|

Cmaj7
e:-------1~----1-----0~-----0------0~--0~-----------------------------
--|
B:--7----1~------1---0~-------0----0~----0~---------1~---1~---1~------
--|
G:--8----2~----------6~------------0~----------2~---0~---2~---0~------
--|
D:--11---3~--3-------7~--7---------2~----------3~---2~---2~---2~------
--|
A:--9----3~----------7~------------3~----------3~---3~---0~---3~------
--|
E:--7----1~----------5~------------------------1~---3~---1~---3~------
--|

[Riff 1] x1
[Riff 2a] x1

Segue:
E
e:--0--0----0--0----|-0--0----0--0----|--------------------|---0~----|
B:--0----0--0----0--|-0----0--0----0--|------1~--1~--1-1-1-|---0~----|
G:--6-------6-------|-0-------0-------|--2~--0~--2~--0-0-0-|---1~----|
D:--7-------7-------|-2-------2-------|--3~--2~--2~--2-2-2-|---2~----|
A:--7-------7-------|-3-------3-------|--3~--3~--0~--3-3-3-|---2~----|
E:--5-------5-------|-----------------|--1~--3~--1~--3-3-3-|---0~----|




























Rush - VI - The Sphere (A Kind of Dream)


We can walk our road toge-...
D G Bm
E--------2------------------7-----------2----
B--------3------------------8-----------3----
G--------2------------------7-----------4----
D--------0------------------0-----------4----
A---------------------------------------2----
E--------------------------------------------

are all the same ...
(Bm) Asus4 A
E-(2)------------------0-0-0----0--------------
B-(3)------------------3---3----2--------------
G-(4)------------------2---2----2--------------
D-(4)------------------2---2----2--------------
A-(2)------------------0---0----0--------------
E----------------------------------------------

We can run alone ...
(A) Cm G
E-(0)----4-------------3------------------
B-(2)----5-------------3------------------
G-(2)----6-------------0------------------
D-(2)----6-------------0------------------
A-(0)----4-------------2------------------
E----------------------3------------------

pur-sue a ...
Esus4 E F#
E-----0-------0----------0--0-----2-------------
B-----0-------0----------0--0-----2-------------
G-----2-------1----------2p-1-----3-------------
D-----2-------2----------2--2-----4-------------
A-----2-------2----------2--2-----4-------------
E-----0-------0----------0--0-----2-------------

Let the truth of ...
(synth notes) (D .............................)
(F#) D G
E-(2)-----------2----------------3--------------
B-(2)-----------3----------------3--------------
G-(3)-----------2----------------0--------------
D-(4)-----------0----------------0--------------
A-(4)----------------------------2--------------
E-(2)----------------------------3--------------

love of truth sh-ine ...
(..D................C#...................)
Bm A Asus2
E---2--------------------0----0------------
B---3--------------------2----0------------
G---4--------------------2----2------------
D---4--------------------2----2------------
A---2--------------------0----0------------
E------------------------------------------

armed with sense ...
(.E....................G..............)
Cm G
E--4--------------------3---------------
B--5--------------------3---------------
G--6--------------------0---------------
D--6--------------------0---------------
A--4--------------------2---------------
E-----------------------3---------------

heart and mind united in ...
(.B..........................A.......B-A-G..)
Bm A Asus2 Cmaj7
E--2--------------------------0----0--0------
B--3--------------------------2----0--0------
G--4--------------------------2----2--0------
D--4--------------------------2----2--2------
A--2--------------------------0----0--3------
E--------------------------------------------

sphere ...
(..A..............B.............D.........)
F G D
E--1----1---------3----3---3----2------------
B--1-----1--------3-----3-------3------------
G--2--------2-----0-------------2------------
D--3--3---3-------0--0---0------0------------
A--3--------------2--------------------------
E--1--------------3--------------------------































Here Again
Album: Rush
Contains:

Intro
Verse
Chorus
Main Solo
Outro Solo

By: Janss L. Adams
With major contributions from Chris Aynesworth

Listen to the song for the timing. . .

Intro
Slight distortion
|--------------------------------------------------------------------
|-------------------------------------------------------------------
|-(4)-----4----------------------------2-------------------------4--
|-(4)-----4-------------2--0-----------2-------------------0-2---2--
|--2-----2----2-2--2--------4--2--0---0---0-0--0--0-2-4--------2--
|--------------------------------------------------------------0----


--------------------------------------------------------------------
--------------------------0--0-----0--0----------------------------
--------------------------2--2-----2--2--------4-------------------
--------------------2--------------------------4-----------2--0----
--------0-2-4-0-2--2---2--------2-------(2)-2--2---2-2--2-------4-
--0--0--------------------------------------------------------------


Little Dist.
--------------------------------------------------------------------
------------------------------------------------------------0--0---
--------2-------------------------4-------------------------2--2---
--------2-------------------0-2---2--------------------------------
-2--0---0---0-0--0--0-2-4--------2----------0-2-4-0-2--2-------2-
--------------------------------0-----0--0-------------------------


Verse (Upstrokes)
End Intro "Said I've played this song. . ."
---------|--x----x----x----x----x-----x------x-----x-|
--0--0---|-x----x----x----x----2-----x------x------x-|
--2--2---|-4----4----2----2----2----4------4------4-|
---------|-4----4----2----2----2----4------4------4-|
---------|-2----2----2----2----0----2--0-0-2--0-0-2-|
---------|-------------------------------------------|

Repeat Verse 3x
Repeat Intro once
Repeat verse 4x -I think Alex plays around with this chord below. . .

"Well you say you there. . ."
-------2-------
-----3----3----
---4--------4-
--2-----------
--------------
--------------

Chorus: Do two times. . .heavy dist.
Chord progression-listen for timing. . . (2x)
|--0----------------------------------5-->151515151515-<
|--0---2---------------------------2--5-->151515151515-<
|--4---2---------------5-------4---2--2------------------
|--2---2-------------5---5-<-4-----2--2------------------
|--2---0------2----3---------------0--0------------------
|-----------5---5-----------------------------------------


Solo: heavy distortion w/delay
|--------------------------------------------------------------------
|--------------------------------------------------------------------
|--------------------------------------------------------------------
|---------------------------------_------_------------5~~~-4-0------
|-0~-2~----2~->7----7<5>7--9-7--7-9-7--7-9-7<5~~<-0-----------2~--
|----------------0---------------------------------------------------


--------------------------------_----------------_--_----6!-6!-~-6!--
----------------_-----6!---3-5-5!-3--5-3!------3-5-3-5!--------------
-----------7-4-7-9-7--------------4------4~------------------------
------1>>(6)-------------------------------------------------------
-0-0~--------------------------------------------------------------
--------------------------------------------------------------------


-6!--5-4-2-------_--------------_-_--------------5-7-9!-9!-5-7---
-----------5-3-5!-3---5-3!-----3-5-3~--_--3-5->7------------------
--------------------4------4~---------2-4-------------------------
--------------------------------------------------------------------
--------------------------------------------------------------------
--------------------------------------------------------------------

_ _ _
-10-12--12!--10----10-12-10----10---------------_-----------------
----------------12-----------12---12--_---10-12!--10----12-10~----
--------------------------------------9-11-----------11------------
--------------------------------------------------------------------
--------------------------------------------------------------------
--------------------------------------------------------------------


x3
-------------_------------------_----------------------------------
--_--3-5-5-5!-3----5-5-3~-----3-6---6-5-3--_--------_-----_--3!--
-2-4------------4-----------------4--------4-2---4-4!-2---2-4-----
------------------------------------------------4--------4---------
--------------------------------------------------------------------
--------------------------------------------------------------------

-----------------_---10---------------------17---17---17---17------
----------_---10-12----12-12~-15-17-15-17!--17!---17!---17!-------
-4~(4)<--9-11-------------------------------------------------------
--------------------------------------------------------------------
--------------------------------------------------------------------
--------------------------------------------------------------------


x2
-------17----_-----------------17!-17!~--17/(/)17!-17!~--------------
-17!~------17!-15----17-15------------------------------------------
------------------16-------16~-------------------------------------
--------------------------------------------------------------------
--------------------------------------------------------------------
--------------------------------------------------------------------


_ _
slowly
-17 15-17-15-------------15!-15!-15!~-15!--15---------------------
--------------16-15-15-----------------------15-17-17!-----------
------------------------------------------------------------------
------------------------------------------------------------------
------------------------------------------------------------------
------------------------------------------------------------------


------_---------------------------_----10-12!-10-12-10!----------
--(17)-15-----17-15!--------_---10-12------------------12---------
----------16---------16~--9-11------------------------------------
--------------------------------------------------------------------
-------------------------------------------------------------------
-------------------------------------------------------------------


[ x6 ]
----------10----17-----17-17---------------------------------------
----10-12---17!----17!--------17-15-17-15------------_---15-17!/---
-11----------------------------------------16-16~--14-16-----------
---------------------------------------------------------------------
---------------------------------------------------------------------
---------------------------------------------------------------------


[ x3 ]
---------------_---------------------------------------------------
----17-15--17!--15--15!--12~<--14-15----14-15-14---14-15-14-----
-16-----------------------------------16---------16----------16---
-------------------------------------------------------------------
-------------------------------------------------------------------
-------------------------------------------------------------------


Gradual Bend
--------------------------------------------------------------------
-14-15-14------------------------------------------_-_-------------
----------16-14-13-14-13-14-13-14xxxxxxxx!~------7-9-7--7-9-9!----
----------------------------------------------->9--------9---------
--------------------------------------------------------------------
--------------------------------------------------------------------


-------------------------------------------------------------------
----_-------_----_-------------------------------------------------
--(9)-7--9-9-7--9-7-------------------------------_--7/--7-9------
-------9------9-----9--7-------------------------7-9---9----------
-------------------------9-8-7------5--------->9------------------
-------------------------------10-7---7-->-<----------------------


------------------------------------------_-----------------------
------_--------------------10---10-12-12!--10-- 10-12~----------
--9/9!-7--9-7-----7~~-->11---11--------------11------------------
--------9----9-9~------------------------------------------------
-------------------------------------------------------------------
-------------------------------------------------------------------

x4 Grad. Release
-----10-12-10-12!-12!~(12!)-12!-12-10----------------|
--------------------------------------12!------------|
-----------------------------------------------11<--|
-----------------------------------------------------|
-----------------------------------------------------|
-----------------------------------------------------|

Chorus-2x

Outro solo:

_
----------------------------_-------13!-13!-13!(13)--12-12-10--------
--_---3-5-3-5!~~--->7-10-10-12~-10--------------------------12-----
-2-4~---------------------------------------------------------------
---------------------------------------------------------------------
---------------------------------------------------------------------
---------------------------------------------------------------------

-----10---------------------------------------3---|
--------12-10------------_--3--5!--5-3-------3---|
--------------11--------2-4------------4-2---0---|
-----------------12~--------------------------0---|
----------------------------------------------2---|
----------------------------------------------3---|

Key:
> slide up
< slide down
~ vibrato
! full bend
/ half bend
_ hammer on or pull off

Any questions or comments, write:
Janss-- ubeads@protected.olga.ne












High Water
>From the album "Hold Your Fire" (Mercury Records)
Copyright 1987 Core Music Publishing
Music by Lee & Lifeson
Lyrics by Peart

Transcription by C.D. Bruce (cbruce@protected.olga.net)

***********************************************************
* This File created the old fashioned way! *
* (by cutting, pasting, typing, etc.) *
* For best results, use a fixed point font such as *
* Courier or like. A tabulature explanation is provided *
* at the bottom of this file. *
***********************************************************

Drum intro (guitar tacet for 2 bars)

Clean tone w/either "chorus" or "dimension" effect
e|---------------------------------|---------------------------------
|G
B|---------------------------------|---------------------------------
|T
G|---------------------------------|---------------------------------
|R
D|<12>-----------------------------|<12>-----------------------------
|1
A|---------------------------------|---------------------------------|
E|------------<12>-----------------|-------------<12>----------------|

e|---------------------------------|---------------------------------
|G
B|---------------------------------|---------------------------------
|T
G|<12>-----------------------------|<12>-----------------------------
|R
D|------------<7>------------------|------------<7>------------------
|1
A|---------------------------------|---------------------------------|
E|---------------------------------|---------------------------------|

e|---------------------------------|---------------------------------
|G
B|---------------------------------|---------------------------------
|T
G|---------------------------------|---------------------------------
|R
D|<12>-----------------------------|<12>-----------------------------
|1
A|---------------------------------|---------------------------------|
E|------------<12>-----------------|-------------<12>----------------|

Csus2
e|-----------------3---------------|-----------------3---------------
|G
B|---------3-----------3-----------|---------3-----------3-----------
|T
G|o----5-------5-----------5---5---|-----5-------5-----------5---5--
o|R
D|o5-------------------------------|-5------------------------------
o|1
A|---------------------------------|---------------------------------|
E|---------------------------------|---------------------------------|

Asus2
e|-----------------0---------------|-----------------0---------------
|G |
B|---------0-----------0-----------|---------0-----------0-----------
|T |
G|-----2-------2-----------2---2---|-----2-------2-----------2---2---
|R |
D|-2-------------------------------|-2-------------------------------
|1 |
A|---------------------------------|---------------------------------|
|
E|---------------------------------|---------------------------------|
|

|
A
|
e|---------------------------------|---------------------------------
|G |
B|---------------------------------|---------------------------------
|T |
G|---------------------------------|---------------------------------
|R |
D|-7~------------------------------|---------------------------------
|2 |
A|-7~------------------------------|---------------------------------|
|
E|-5~------------------------------|---------------------------------|
|

Asus2
e|-----------------0---------------|-----------------0---------------
|G |
B|---------0-----------0-----------|---------0-----------0-----------
|T |
G|-----2-------2-----------2---2---|-----2-------2-----------2---2---
|R |
D|-2-------------------------------|-2-------------------------------
|1 |
A|---------------------------------|---------------------------------|
|
E|---------------------------------|---------------------------------|
|

|
e|---------------------------------|---------------------------------
|G |
B|---------------------------------|---------------------------------
|T |
G|---------------------------------|---------------------------------
|R |
D|<7>~~~---------------------------|---------------------------------
|2 |
A|---------------------------------|---------------------------------|
|
E|---------------------------------|---------------------------------|
|

Csus2
e|-----------------3---------------|-----------------3---------------
|G |
B|---------3-----------3-----------|---------3-----------3-----------
|T |
G|-----5-------5-----------5---5---|-----5-------5-----------5---5---
|R |
D|-5-------------------------------|-5-------------------------------
|1 |
A|---------------------------------|---------------------------------|
|
E|---------------------------------|---------------------------------|
|

|
1 2 3 4 1 2 3 4
|
1 2 3 4 5 6 7 8 1 2 3 4 5 6 7 8
|
e|---------------------------------|---------------------------------
|G |
B|---------------------------------|---------------------------------
|T |
G|---------------------------------|---------------------------------
|R |
D|---------------------------------|---------------------------------
|2 |
A|---------------------------------|---------------------------------|
|
E|---------------------------------|---------------------------------|
|


e|-----------------3---------------|-----------------3---------------
|G |
B|---------3-----------3-----------|---------3-----------3-----------
|T |
G|-----5-------5-----------5---5---|-----5-------5-----------5---5---
|R |
D|-5-------------------------------|-5-------------------------------
|1 |
A|---------------------------------|---------------------------------|
|
E|---------------------------------|---------------------------------|
|

|
1 2 3 4 1 2 3 4
|
1 2 3 4 5 6 7 8 1 2 3 4 5 6 7 8
|
e|---------------------------------|---------------------------------
|G |
B|---------------------------------|---------------------------------
|T |
G|---------------------------------|---------------------------------
|R |
D|---------------------------------|---------------------------------
|2 |
A|---------------------------------|---------------------------------|
|
E|---------------------------------|---------------------------------|
|

Gsus2
e|-----------------10--------------|-----------------10--------------
|G |
B|---------10----------10----------|---------10----------10----------
|T |
G|-----12------12----------12--12--|-----12------12----------12--12--
|R |
D|-12------------------------------|-12------------------------------
|1 |
A|---------------------------------|---------------------------------|
|
E|---------------------------------|---------------------------------|
|

|
1 2 3 4 1 2 3 4
|
1 2 3 4 5 6 7 8 1 2 3 4 5 6 7 8
|
e|---------------------------------|---------------------------------
|G |
B|---------------------------------|---------------------------------
|T |
G|---------------------------------|---------------------------------
|R |
D|---------------------------------|---------------------------------
|2 |
A|---------------------------------|---------------------------------|
|
E|---------------------------------|---------------------------------|
|

Fsus2
e|-----------------8---------------|-----------------8---------------
|G |
B|---------8-----------8-----------|---------8-----------8-----------
|T |
G|-----10-------10---------10--10--|-----10------10----------10------
|R |
D|-10------------------------------|-10------------------------------
|1 |
A|---------------------------------|---------------------------------|
|
E|---------------------------------|---------------------------------|
|

|
1 2 3 4 1 2 3 4
|
1 2 3 4 5 6 7 8 1 2 3 4 5 6 7 8
|
e|---------------------------------|---------------------------------
|G |
B|---------------------------------|---------------------------------
|T |
G|---------------------------------|---------------------------------
|R |
D|---------------------------------|---------------------------------
|2 |
A|---------------------------------|---------------------------------|
|
E|---------------------------------|---------------------------------|
|


(1st verse synth can be reproduced by using a clean tone
with a tremolo effect otherwise use an overdriven tone
These chords below should be used for the first verse only.)
e|---------------------------------|---------------------------------|
B|---------------------------------|---------------------------------|
G|-7-----------9-------------------|-7-----------9-------------------|
D|-7-----------9-------------------|-7-----------9-------------------|
A|-5-----------7-------------------|-5-----------7-------------------|
E|---------------------------------|---------------------------------|

e|---------------------------------|---------------------------------|
B|---------------------------------|---------------------------------|
G|---------------------------------|---------------------------------|
D|-5-----------7-------------------|-5-----------7-------------------|
A|-5-----------7-------------------|-5-----------7-------------------|
E|-3-----------5-------------------|-3-----------5-------------------|

(%)
Repeat 4 times
e|---------------------------------|---------------------------------
|G
B|-3-------------------------------|-3-------------------------------
|T
G|o2-----------1-------------------|-2-----------1-------------------
|R
D|o0-----------2-------------------|-0-----------2-------------------
|2
A|-------------2-------------------|-------------2-------------------|
E|-------------0-------------------|-------------0-------------------|

e|---------------------------------|---------------------------------
|G
B|---------------------------------|---------------------------------
|T
G|-4-----------6-------------------|-4-----------5------------------
o|R
D|-5-----------7-------------------|-5-----------7------------------
o|2
A|-5-----------7-------------------|-5-----------7-------------------|
E|-3-----------5-------------------|-3-----------5-------------------|

F#m (synth)
e|-2-------------------------------|---------------------------------|
B|-2-------------------------------|---------------------------------|
G|-2-------------------------------|---------------------------------|
D|-4-------------------------------|---------------------------------|
A|-4-------------------------------|---------------------------------|
E|-2-------------------------------|---------------------------------|

GaddA Coda (+)
e|-3-------------------------------|---------------------------------|
B|-3-------------------------------|---------------------------------|
G|-4-------------------------------|---------------------------------|
D|-7-------------------------------|---------------------------------|
A|-5-------------------------------|---------------------------------|
E|-3-------------------------------|---------------------------------|

A
e|---------------------------------|---------------------------------
|G
B|-7-----------9-------------------|-8-----------10~-----------------
|T
G|-7-----------9-------------------|-7-----------9-~-------------2-2-
|R
D|---------------------------------|-----------------------------2-2-
|2
A|---------------------------------|-----------------------------0-0-|
E|---------------------------------|---------------------------------|

Asus2
e|-----------------0---------------|-----------------0---------------
|G |
B|---------0-----------0-----------|---------0-----------0-----------
|T |
G|----2-------2-----------2---2----|-----2-------2-----------2---2---
|R |
D|-2-------------------------------|-2-------------------------------
|1 |
A|---------------------------------|---------------------------------|
|
E|---------------------------------|---------------------------------|
|

|
A
|
e|---------------------------------|---------------------------------
|G |
B|---------------------------------|---------------------------------
|T |
G|-2~------------------------------|(2)------------------------------
|R |
D|-2~------------------------------|(2)------------------------------
|2 |
A|-0~------------------------------|(0)------------------------------|
|
E|---------------------------------|---------------------------------|
|

Asus2
e|-----------------0---------------|-----------------0---------------
|G |
B|---------0-----------0-----------|---------0-----------0-----------
|T |
G|-----2-------2-----------2---2---|-----2-------2-----------2---2---
|R |
D|-2-------------------------------|-2-------------------------------
|1 |
A|---------------------------------|---------------------------------|
|
E|---------------------------------|---------------------------------|
|

|

|
e|---------------------------------|---------------------------------
|G |
B|---------------------------------|---------------------------------
|T |
G|(2)------------------------------|(2)--------------------------2-2-
|R |
D|(2)------------------------------|(2)--------------------------2-2-
|2 |
A|(0)------------------------------|(0)--------------------------0-0-|
|
E|---------------------------------|---------------------------------|
|

Asus2
e|-----------------0---------------|-----------------0---------------
|G |
B|---------0-----------0-----------|---------0-----------0-----------
|T |
G|----2-------2-----------2---2----|-----2-------2-----------2---2---
|R |
D|-2-------------------------------|-2-------------------------------
|1 |
A|---------------------------------|---------------------------------|
|
E|---------------------------------|---------------------------------|
|

|
A
|
e|---------------------------------|---------------------------------
|G |
B|---------------------------------|---------------------------------
|T |
G|-2~------------------------------|(2)------------------------------
|R |
D|-2~------------------------------|(2)------------------------------
|2 |
A|-0~------------------------------|(0)------------------------------|
|
E|---------------------------------|---------------------------------|
|

Asus2
e|-----------------0---------------|-----------------0---------------
|G |
B|---------0-----------0-----------|---------0-----------0-----------
|T |
G|-----2-------2-----------2---2---|-----2-------2-----------2---2---
|R |
D|-2-------------------------------|-2-------------------------------
|1 |
A|---------------------------------|---------------------------------|
|
E|---------------------------------|---------------------------------|
|

|
e|---------------------------------|---------------------------------
|G |
B|---------------------------------|---------------------------------
|T |
G|(2)------------------------------|(2)--------------------------2-2-
|R |
D|(2)------------------------------|(2)--------------------------2-2-
|2 |
A|(0)------------------------------|(0)--------------------------0-0-|
|
E|---------------------------------|---------------------------------|
|

Asus2
e|-----------------0---------------|-----------------0---------------
|G |
B|---------0-----------0-----------|---------0-----------0-----------
|T |
G|----2-------2-----------2---2---|-----2-------2-----------2---2----
|R |
D|-2-------------------------------|-2-------------------------------
|1 |
A|---------------------------------|---------------------------------|
|
E|---------------------------------|---------------------------------|
|

|
A
|
e|---------------------------------|---------------------------------
|G |
B|---------------------------------|---------------------------------
|T |
G|-2~------------------------------|(2)------------------------------
|R |
D|-2~------------------------------|(2)------------------------------
|2 |
A|-0~------------------------------|(0)------------------------------|
|
E|---------------------------------|---------------------------------|
|

Asus2
e|-----------------0---------------|-----------------0---------------
|G |
B|---------0-----------0-----------|---------0-----------0-----------
|T |
G|-----2-------2-----------2---2---|-----2-------2-----------2---2---
|R |
D|-2-------------------------------|-2-------------------------------
|1 |
A|---------------------------------|---------------------------------|
|
E|---------------------------------|---------------------------------|
|

|
e|---------------------------------|---------------------------------
|G |
B|---------------------------------|---------------------------------
|T |
G|(2)------------------------------|(2)------------------------------
|R |
D|(2)------------------------------|(2)------------------------------
|2 |
A|(0)------------------------------|(0)------------------------------|
|
E|---------------------------------|---------------------------------|
|

G
e|-3-------------------------------|---------------------------------|
B|-3-------------------------------|---------------------------------|
G|-4-------------------------------|---------------------------------|
D|-5-------------------------------|---------------------------------|
A|-5-------------------------------|---------------------------------|
E|-3-------------------------------|---------------------------------|

F#m
e|-2-------------------------------|---------------------------------|
B|-2-------------------------------|---------------------------------|
G|-2-------------------------------|---------------------------------|
D|-4-------------------------------|---------------------------------|
A|-4-------------------------------|---------------------------------|
E|-2-------------------------------|---------------------------------|

Repeat 5 times
D E D E
e|---------------------------------|---------------------------------|
B|-3-------------------------------|-3-------------------------------|
G|o2-----------1-------------------|-2-----------1-------------------|
D|o0-----------2-------------------|-0-----------2-------------------|
A|-------------2-------------------|-------------2-------------------|
E|-------------0-------------------|-------------0-------------------|

G A G A
e|---------------------------------|---------------------------------|
B|---------------------------------|---------------------------------|
G|-4-----------6-------------------|-4-----------5------------------o|
D|-5-----------7-------------------|-5-----------7------------------o|
A|-5-----------7-------------------|-5-----------7-------------------|
E|-3-----------5-------------------|-3-----------5-------------------|

F#m (synth)
e|-2-------------------------------|---------------------------------|
B|-2-------------------------------|---------------------------------|
G|-2-------------------------------|---------------------------------|
D|-4-------------------------------|---------------------------------|
A|-4-------------------------------|---------------------------------|
E|-2-------------------------------|---------------------------------|

GaddA (synth)
e|-3-------------------------------|---------------------------------|
B|-3-------------------------------|---------------------------------|
G|-4-------------------------------|---------------------------------|
D|-7-------------------------------|---------------------------------|
A|-5-------------------------------|---------------------------------|
E|-3-------------------------------|---------------------------------|

A
e|---------------------------------|---------------------------------
|G
B|-7-----------9-------------------|-8-----------10~-----------------
|T
G|-7-----------9-------------------|-7-----------9-~-------------2-2-
|R
D|---------------------------------|-----------------------------2-2-
|2
A|---------------------------------|-----------------------------0-0-|
E|---------------------------------|---------------------------------|

A
|
e|---------------------------------|---------------------------------
|G |
B|---------------------------------|---------------------------------
|T |
G|o2~------------------------------|(2)------------------------------
|R |
D|o2~------------------------------|(2)------------------------------
|2 |
A|-0~------------------------------|(0)------------------------------|
|
E|---------------------------------|---------------------------------|
|


|
e|---------------------------------|---------------------------------
|G |
B|---------------------------------|---------------------------------
|T |
G|(2)------------------------------|(2)--------------------------2-
2o|R |
D|(2)------------------------------|(2)--------------------------2-
2o|2 |
A|(0)------------------------------|(0)--------------------------0-0-|
|
E|---------------------------------|---------------------------------|
|

G
e|-3-------------------------------|---------------------------------|
B|-3-------------------------------|---------------------------------|
G|-4-------------------------------|---------------------------------|
D|-5-------------------------------|---------------------------------|
A|-5-------------------------------|---------------------------------|
E|-3-------------------------------|---------------------------------|

F#m
e|-2-------------------------------|---------------------------------|
B|-2-------------------------------|---------------------------------|
G|-2-------------------------------|---------------------------------|
D|-4-------------------------------|---------------------------------|
A|-4-------------------------------|---------------------------------|
E|-2-------------------------------|---------------------------------|

Solo (Later) don't worry I'll do it, its an easy one!
1 2 3 4 1 2 3 4
1 2 3 4 5 6 7 8 1 2 3 4 5 6 7 8
e|---------------------------------|---------------------------------|
B|---------------------------------|---------------------------------|
G|---------------------------------|---------------------------------|
D|---------------------------------|---------------------------------|
A|---------------------------------|---------------------------------|
E|---------------------------------|---------------------------------|

Repeat 5 times
D E D E
e|---------------------------------|---------------------------------|
B|-3-------------------------------|-3-------------------------------|
G|o2-----------1-------------------|-2-----------1-------------------|
D|o0-----------2-------------------|-0-----------2-------------------|
A|-------------2-------------------|-------------2-------------------|
E|-------------0-------------------|-------------0-------------------|

G A G A
e|---------------------------------|---------------------------------|
B|---------------------------------|---------------------------------|
G|-4-----------6-------------------|-4-----------5------------------o|
D|-5-----------7-------------------|-5-----------7------------------o|
A|-5-----------7-------------------|-5-----------7-------------------|
E|-3-----------5-------------------|-3-----------5-------------------|

F#m (synth)
e|-2-------------------------------|---------------------------------|
B|-2-------------------------------|---------------------------------|
G|-2-------------------------------|---------------------------------|
D|-4-------------------------------|---------------------------------|
A|-4-------------------------------|---------------------------------|
E|-2-------------------------------|---------------------------------|

GaddA (synth)
e|-3-------------------------------|---------------------------------|
B|-3-------------------------------|---------------------------------|
G|-4-------------------------------|---------------------------------|
D|-7-------------------------------|---------------------------------|
A|-5-------------------------------|---------------------------------|
E|-3-------------------------------|---------------------------------|

Repeat 6 times
Csus2
e|-----------------3---------------|-----------------3---------------
|G
B|---------3-----------3-----------|---------3-----------3-----------
|T
G|o----5-------5-----------5---5---|-----5-------5-----------5---5--
o|R
D|o5-------------------------------|-5------------------------------
o|1
A|---------------------------------|---------------------------------|
E|---------------------------------|---------------------------------|

Bb (synth)
e|-1-------------------------------|---------------------------------|
|
B|-3-------------------------------|---------------------------------|
|
G|-3-------------------------------|---------------------------------|
|
D|-3-------------------------------|---------------------------------|
|
A|-1-------------------------------|---------------------------------|
|
E|---------------------------------|---------------------------------|
|

|
1 2 3 4 1 2 3 4
|
1 2 3 4 5 6 7 8 1 2 3 4 5 6 7 8
|
e|---------------------------------|---------------------------------
|G |
B|---------------------------------|---------------------------------
|T |
G|---------------------------------|---------------------------------
|R |
D|---------------------------------|---------------------------------
|2 |
A|---------------------------------|---------------------------------|
|
E|---------------------------------|---------------------------------|
|

Am (synth)
e|-0-------------------------------|---------------------------------|
|
B|-1-------------------------------|---------------------------------|
|
G|-2-------------------------------|---------------------------------|
|
D|-2-------------------------------|---------------------------------|
|
A|-0-------------------------------|---------------------------------|
|
E|---------------------------------|---------------------------------|
|

|
1 2 3 4 1 2 3 4
|
1 2 3 4 5 6 7 8 1 2 3 4 5 6 7 8
|
e|---------------------------------|---------------------------------
|G |
B|---------------------------------|---------------------------------
|T |
G|---------------------------------|---------------------------------
|R |
D|---------------------------------|---------------------------------
|2 |
A|---------------------------------|---------------------------------|
|
E|---------------------------------|---------------------------------|
|

G (synth)
e|-3-------------------------------|---------------------------------|
|
B|-3-------------------------------|---------------------------------|
|
G|-4-------------------------------|---------------------------------|
|
D|-5-------------------------------|---------------------------------|
|
A|-5-------------------------------|---------------------------------|
|
E|-3-------------------------------|---------------------------------|
|

|
1 2 3 4 1 2 3 4
|
1 2 3 4 5 6 7 8 1 2 3 4 5 6 7 8
|
e|---------------------------------|---------------------------------
|G |
B|---------------------------------|---------------------------------
|T |
G|---------------------------------|---------------------------------
|R |
D|---------------------------------|---------------------------------
|2 |
A|---------------------------------|---------------------------------|
|
E|---------------------------------|---------------------------------|
|
F
e|-1-------------------------------|---------------------------------
|G
B|-1-------------------------------|---------------------------------
|T
G|-2-------------------------------|---------------------------------
|R
D|-3-------------------------------|---------------------------------
|1
A|-3-------------------------------|---------------------------------|
E|-1-------------------------------|---------------------------------|

Tabulature Explanation:
| = bar line
~ = vibrato or held note
x = percussive note with no pitch; muted note
. = staccato; mute the note immediately after striking it
h = hammer
p = pull
s = slide (used when \ or / don't fit)
^ = bend string up to indicated pitch/fret shown in parenthesis ()
r = release bend to indicated string/fret
t = fret board tap (not many of these with Rush)
/ = slide up
\ = slide down
<5> = natural harmonic (lightly touch the string at fret indicated)
[5] = artificial harmonic (use thumb to follow through the pick
attack)
o =\ repeat sign
o =/
D.C. = "Da capo" - means "from the head", when you see these initials
you
'
go back to the beginning of the piece of music.
D.S. = "Dal segno" - means "from the sign", go back in the tabulature
only as far as the (%) sign.
Coda = A passage at the end of a movement or composition that brings
it to a formal close.
Al Coda = means "to the tail", tells you that you must go to the end
section which starts with the Coda sign (+).
R.F. = repeat and fade
rit. = "ritardando" - Gradually slowing in tempo; retarding.


Other pertinent information:
Tempo: 1/4 note = ???
Tuning: Standard [EADGBe].
Key signature: ?
Effects: Overdrive, Reverb, Chorus or Dimension
Chord Chart Below for major chords used:

e |---|---|---|---| e |---|---|---|---| e |---|---|---|---|
B |---|---|---|---| B |---|---|---|---| B |---|---|---|---|
G |---|---|---|---| G |---|---|---|---| G |---|---|---|---|
D |---|---|---|---| D |---|---|---|---| D |---|---|---|---|
A |---|---|---|---| A |---|---|---|---| A |---|---|---|---|
E |---|---|---|---| E |---|---|---|---| E |---|---|---|---|































Rush - In The End

From the CD 'Fly By Night'
Written by Lee/Lifeson/Peart
Mercury/Polygram Records 822542-2

This song opens with an acoustic 12 string playing in D,
however
there is some sort of electronic detuning which makes it appear to be
in C.
I will tab out the intro in C but be aware that it is played with the
same
fingering as Riff 2. Also, Riff 1 is played in the same position as
Riff 4,
but with the same electronic detuning. There is phaser almost
throughout
this song, but I will try to notate specifically where it appears.
Previously tabbed by Tony Zimmerman <aurora51@protected.olga.net>.

| = not a standard bar line; just used to separate music
~ = vibrato or held note
x = percussive note with no pitch; muted note
h = hammer on
p = pull off
s = slide
b = bend string up to indicated pitch/fret
r = release bend to indicated string/fret
/ = slide up from infinity
\ = slide down into infinity
[5] = artificial harmonic (use thumb to follow through the pick
attack)
o \_
o / repeat sign (always look for these!)


[Intro] - strum freely (notes in ()'s are not played on every repeat)
C F Eb Bb C F
e:--0-0---1-1--1---------1-1---1------0-0---1-1--1--------------------
----|
B:--1--1--1--1--1---4-4--3---3--3---3-1---1-1--1--1-------------------
----|
G:--0-----2---------3-3--3--------3---0-----2-------------------------
----|
D:--2-----3-------3-5-5--3------------2-----3-------3-----0-3-(0)----
3----|
A:--3-----3---------6-6--1------------3-----3-----------1---------0-3-
--3-|
E:--------1---------------------------------1--------(3)--------------
-3--|

[Riff 1] - strum freely
Am F Am F G
e:--0-0-----0-0-----0--1-1--1-1------0-0-----0-0-----1-----------|
B:--1-1-----1-1-----1--1--1-1--1-----1-1-----1-1-----1--3--------|
G:--2-2-----2-2-----2--2----2--------2-2-----2-2-----2--4--------|
D:--2-2-0h2-2-2-0h2-2--3----3----0h3-2-2-0h2-2-2-0h2-3--5--------|
A:--0-0-----0-0-----0--3----3--------0-0-----0-0-----3--5--------|
E:---------------------------------------------------------------|

[Riff 2] - I can usually hear a higher riff or single note run over
this
riff; it could be another guitar playing the octave or notes
related the chord

D G F C D G (with phaser)
e:--2--2--3~---------0~----2--2--3--3--------------------------------|
B:--3--3--3~---1--1--1~----3--3--3--3--------------------------------|
G:--2--2--0~---2--2--0~----2--2--0--0----------0------0--------------|
D:--0--0--0~---3--3--2~----0--0--0--0--------2------0-----(0)--------|
A:--------2~---3--3--3~----------2--2---0--3------2------0-----------|
E:--------3~---1--1--------------3--3--------------------------------|

[Riff 3] - The last note of Riff 2 is not played when this riff
follows it
_________________________
F A F |1. G |2. G D |
e:---|---------------------|-----------|-----------|
B:---|---1--1-------1--1---|----3-3~---|---3--7~---|
G:---|o--2--2---6---2--2---|----4-4~--o|---4--7~---|
D:---|o--3--3---7---3--3---|----5-5~--o|---5--7~---|
A:---|---3--3---7---3--3---|----5-5~---|---5--5~---|
E:-0-|---1--1---5---1--1---|----3-3~---|---3-------|

[Riff 4]
Bm G Bm G A
e:--2--2--2-2--------------------2-2--2--2---------------------------|
B:--3--3--3-3-----3--3---3---3---3-3--3--3--3--3--5--5---------------|
G:--4--4--4-4-----4--4---4---4---4-4--4--4--4--4--6--6---------------|
D:--4--4--4-4-----5--5---5---5---4-4--4--4--5--5--7--7---------------|
A:--2--2--2-2-----5--5---5---5---2-2--2--2--5--5--7--7---------------|
E:----------------3--3---3---3--------------3--3--5--5---------------|


Song progression:

[Intro] x1

[Intro] x2 /w lyrics:

Well I can see what you mean, it ....

[Riff 1] x1:

Well you can take me for a ....

[Intro] x2

(pitch electronically shifted upward from C to D)

[Riff 2] x2

[Fill 1] over [Riff 2]:
etc
e:---------------------------------------------------------|
B:-15-x-x-15-x-x-15-x-x-15-x-x-15-x-x-15-x-x-15-x-x--------|
G:---------------------------------------------------------|
D:---------------------------------------------------------|
A:---------------------------------------------------------|
E:---------------------------------------------------------|

[Riff 2] x2 /w lyrics:

Well I can see what you mean...

[Riff 3] x2 /w lyrics:

I know, I know, I know. Oh the ....

[Riff 2] x1

[Riff 2] x2 /w lyrics:

I can do what you do, you just ...

[Riff 3] x2 /w lyrics:

I know, I know, I know. ....

[Riff 2] x1

[Riff 2] x4 under [Guitar Solo]:

e:--------------------------------------------------------------------
--|
B:--------------------------------------------------------------------
--|
G:-14b16--14~--14b16--14-12-11h12p11-12p11h12p11--14p11---------------
--|
D:------------------------------------------------------12~~--10-12---
--|
A:--------------------------------------------------------------------
--|
E:--------------------------------------------------------------------
--|

e:--------------------------------------------------------------------
|
B:--------------------------------------------------------------------
|
G:------------------------7-------------------------------------------
|
D:-10p9h10p9-10p9-7--9-10----10-9-7----7-------------7----------------
|
A:----------------------------------10---10-9-7-9-10---10-9-7-9-7-----
|
E:----------------------------------------------------------------10-
8|

e:------|-------------------------------------------------------------
--|
B:------|-------------------------------------------------------------
--|
G:------|-----------------------------------10-12-11-----------------
7--|
D:------|-----------------------10----10-12----------12-11-[12]--7-9--
--|
A:------|-------8----10-8-10s12----12---------------------------------
--|
E:-10~~-|--8h10---10--------------------------------------------------
--|

e:-------------------------------10-12b14~~14~~-12b14~~-
12b14~14~14r12---|
B:----------------------10--10h12-------------------------------------
---|
G:-9b11r9---7-7~~--9s11-----------------------------------------------
---|
D:--------9-----------------------------------------------------------
---|
A:--------------------------------------------------------------------
---|
E:--------------------------------------------------------------------
---|

(gtr joined by a kazoo here?)
e:-12-10-----------------------|--------------------------------------
---|
B:-------12-10-----------------|--------------------------------------
---|
G:-----------------------------|-12h14-14~-14-12-14-12-14-14b16-14-
14b16-|
D:-------------12~-------12-12-|--------------------------------------
---|
A:-----------------12h14-------|--------------------------------------
---|
E:-----------------------------|--------------------------------------
---|

e:------------|-------------------------------------------------------
---|
B:------------|-------------------------------------------------------
---|
G:-14-14b16~~-|-14b17-14b17-14b17-14b17r14-14p12-12p11-11h12p11-14p11-
---|
D:------------|-------------------------------------------------------
12~|
A:------------|-------------------------------------------------------
---|
E:------------|-------------------------------------------------------
---|

e:----------------------------------------------------------|---------
----|
B:----------------------------------------------15~~\-------|---------
----|
G:----------12p11----12p11----12p11----12p11----------------|--12p11--
----|
D:-12-12-12-------12-------12-------12-------12-------12-12-|--------
12---|
A:----------------------------------------------------------|---------
----|
E:----------------------------------------------------------|---------
----|

e:-----------------------------------------|--------------------------
--|
B:-----------------------------------------|--------------------------
--|
G:--12p11-----12p11----12p11---------------|-12p11----12p11----12p11--
--|
D:--------12--------12-------12-12~-12-12--|-------12-------12-------
12-|
A:-----------------------------------------|--------------------------
--|
E:-----------------------------------------|--------------------------
--|

e:---------------------------------------------------|
B:---------------------------------------------------|
G:-12p11----12p11----12p11---------------------------|
D:-------12-------12-------12--12-12---10h12~~~\-----|
A:---------------------------------------------------|
E:---------------------------------------------------|

[Riff 4] x1 /w lyrics:

You can take me for a ....

[Riff 2] x1

[Riff 2] x2 /w lyrics:

Well I can shine like you shine, it ....

[Riff 2] x1

(Now the phaser is used in an opposite fashion - for the chords and it
is
left out from the single notes.)

[Riff 2] x1 much softer

[Riff 2] x2 /w lyrics:

Well I can see what you mean, it just .....

[Riff 2] x1


Freewill
by Rush
[intro]
----------------------------------------------------------------------
---------
-6----5----3----------------------------------------------------------
---------
----------------5----4----2--------------5----4----2------------------
---------
-------------------------------5----3-------------------5----3----2---
---------
----------------------------------------------------------------------
-5----3\-
----------------------------------------------------------------------
---------

riff A
-----------------------------------------------------
-----------------------------------------------------
--------------------------------------------------0--
--------------------------------------2--0-----------
---------3-----2--0---------------3----------2>3-----
--1----1--------------3----1--1----------------------

riff B
--------3--3----8--8----7---5---------3--3----5--5---5---8--------
-1/3----3--3----8--8----8---6----1----3--3----6--6----6--8--10\---
-2/4----4--4----9--9----7---5----2----4--4----5--5----5--9--7\----
------------------------------------------------------------0-----
------------------------------------------------------------------
------------------------------------------------------------------


riff C
---------------------------------------------
---------------------------------------------
---------------------------------------------
-----------------------------2--0-----0--2---
--------3--2--0-----------3--------3---------
--1--1-----------3--1--1---------------------


Pre-Chorus
----0-------------------------3---------------0--------------2--2--3--
2-------
-------3-------------------------6---------------3-----------3--3--3--
3--3>0--
-2--------2--------2/5-----5--------5---------------2--------2--2--2--
2--2>0--
-0--------------0-------3--3---------------------------0-----0--0--0--
0-------
-2-----------1----------3--------------3>0>2--------------1-----------
--------
----------------------------------------------------------------------
--------

Chorus
You can choose.....
--------------------------------------5-------------
--------------------------------------2--2--5---2---
--------7-----------------4-----4--2--2--2--2---2---
-----7-----------2-----4--------2--0--2--2--2---2---
--5--------4--0-----2--------0--2--0--0--0--0---0---
--------------------------------0--2----------------

If you choose...
-----------------------------------------
--------------------------------3--3--2--
--------7-----------4--------2--0--2--2--
-----7-----------4--------2-----0--0--2--
--5--------4--2--------0--------------0--
--------------------------------3--2-----

You can choose ...
------------------------------------------------------
-----------------------------------5--5----5--5----5--
--------7-----------------4--4--2--2--2----2--2----2--
-----7-----------2-----4-----2--0--2--2----2--2----2--
--5--------4--0-----2--------2--0--0--0----0--0----0--
-----------------------------0--2---------------------

I will choose a path..... v-- first time only.
--------------------------------3------2---
--------------------------------3--2---3---
--------7-----------4--------2--0--2---2---
-----7-----------4--------2-----0--2---0---
--5--------4--2--------0-----------0-------
--------------------------------3----------

bridge
---------------------------------------------------------------
-----------------------------------------------------3---------
--------------------------------------3-----------------5--3\--
--------7--5--4--------5--3--2-----------5--3--5--5------------
--5--5-----------3--3-----------5--5---------------------------
---------------------------------------------------------------

---------------------------------------------------------------------
---------------------------------------------------------------------
--10--9--7-------------------12vvvvvvvvvvvvvvvvvvvvvvvvvvvvvvvvv-----
------------10--9--7-------------------------------------------------
----------------------10--8------------------------------------------
---------------------------------------------------------------------

solo
v-p.h. pull up on bar for these notes with the /
--------------------------------------------------------------
--15----------------------------------------------------------
---0--0/--0/--"12"/--0/--"12"/--0/\--13>12>10------12vvvvvvvv-
-----------------------------------------------12-------------
--------------------------------------------------------------
--------------------------------------------------------------

-----------------10---------------------------------------------------
-----
--10--12--13>10----------10--12------13--15vvvvv--13--15vvvvv--13--
15>(17)-
---------------------12----------10-----------------------------------
-----
----------------------------------------------------------------------
-----
----------------------------------------------------------------------
-----
----------------------------------------------------------------------
-----

-------------------------------------15--13>15>13--12--13>15>13-------
----
--15--13vvvvvv--15--15>(17)--15--13------------------------------
13vvvvv--
----------------------------------------------------------------------
----
----------------------------------------------------------------------
----
----------------------------------------------------------------------
----
----------------------------------------------------------------------
----

-----------------------------------------------------------------
--12--13--12-----------------------------------------------------
--------------12>(13)--12>14>12>(13)>0===>4>(5)====>4>0/\/\/\----
-----------------------------------------------------------------
-----------------------------------------------------------------
-----------------------------------------------------------------

--16>15>13------13--17--15>13-----------13--13--------------15>13-----
-
------------15-----------------16>(18)----------13--13--15---------15-
-
----------------------------------------------------------------------
-
----------------------------------------------------------------------
-
----------------------------------------------------------------------
-
----------------------------------------------------------------------
-

--13--17--17--15--13--------------------------------13--17--15--------
-------
----------------------17--17--13>15--18--18>12--15--------------12--
17>13\10-
----------------------------------------------------------------------
-------
----------------------------------------------------------------------
-------
----------------------------------------------------------------------
-------
----------------------------------------------------------------------
-------

----------10>13>10--10---------------------------------------------
--10--13----------------13--10--10------12-------------------------
------------------------------------12------0--9\7---5-----2>0-----
-----------------------------------------------7\5---2--0-------4--
-------------------------------------------------------------------
-------------------------------------------------------------------

----------------------------------------------------------------------
-----
----------------------------------------------------------------------
-----
--0----------5-----------2>0-----0>2>0--4--2--2--0--0--4--2--0--2--4--
5--5-
-----0>2--2-----0--2--3-------3---------------------------------------
-----
----------------------------------------------------------------------
-----
----------------------------------------------------------------------
-----

----------------------------------------------------------------------
----------------------------------------------------------------------
--4--5--7--7--5--7--7--9--9-----9--7--9--10--10--9--10/12--10--10--12-
-----------------------------9----------------------------------------
----------------------------------------------------------------------
----------------------------------------------------------------------

----------------13--13--14--10----------12----------------------------
---
--10>12>10--12------------------13--13------13\-------8-------13--13--
13-
-------------------------------------------------5/7--7--/12--12--12--
12-
-------------------------------------------------7/9--9--/14--14--14--
14-
----------------------------------------------------------------------
---
----------------------------------------------------------------------
---

-----------------10--13>10--10---------10>13--10--------------10--13--
10-
--0--8--8\6--6/-----------------13>10-------------13--10--------------
---
-----7--7\5--5/-------------------------------------------10----------
---
--------8\7--7/-------------------------------------------------------
---
----------------------------------------------------------------------
---
----------------------------------------------------------------------
---

------10--13>(15)--13vvvvvv\--------------------------------------0--
20-
--12-------------------------------8-------13--13--13--0--12\10/--0---
--
------------------------------5/7--7--/12--12--12--12-----12\10/------
--
------------------------------7/9--9--/14--14--14--14-----------------
--
----------------------------------------------------------------------
--
----------------------------------------------------------------------
--

--20--20>(22)--20>(22)vvvvvv--17--17--20--20>(21)--20>(22)--22-
---------------------------------------------------------------
---------------------------------------------------------------
---------------------------------------------------------------
---------------------------------------------------------------
---------------------------------------------------------------

----------------------------------------------------------------------
--
-------8-------13--13--13--0--12-----0--------13>(15)--
13>(15)vvvvvvvv--
--5/7--7--/12--12--12--12-----12--0-----0--0--------------------------
--
--7/9--9--/14--14--14--14---------------------------------------------
--
----------------------------------------------------------------------
--
----------------------------------------------------------------------
--

-------------------10-------------------------------------------------
-
--13--10--13>(14)------12--10>12>10\-------8-------13--13--13--0--12\-
-
--------------------------------------5/7--7--/12--12--12--12-----12\-
-
--------------------------------------7/9--9--/14--14--14--14---------
-
----------------------------------------------------------------------
-
----------------------------------------------------------------------
-

----------12-----13--10--------------10------10-----------------------
--
------10--12-------------13--10----------13------13--10---------------
--
------10------0------------------13----------------------10>12>10--9--
9-
--10------------------------------------------------------------------
--
----------------------------------------------------------------------
--
----------------------------------------------------------------------
--

---------------------------------------------------------
---------------------------------------------------------
--9--7--9--6--6--7--4--5>4\2>0--10--9--7-----------------
------------------------------------------10--9--7-------
----------------------------------------------------10\--
---------------------------------------------------------

outro
--------------------------------------------------------------
-----------------------------------------------------3--------
--------------------------------------3-----------------5--3/-
--------7--5--4--------5--3--2-----------5--3--5--5-----------
--5--5-----------3--3-----------5--5--------------------------
--------------------------------------------------------------

----------------------------------------------------------3--
----------------------------------------------------------3--
--10--9--7------------------------------------------------0--
------------10--9--7---------10--9--7---------------------0--
----------------------10--8------------10--8--7--------------
-------------------------------------------------10--8\---3--



[intro]

[riff A]

[riff B] X 2

[riff C]
There are those who think that life has ....

[riff A]
host of holy horrors to direct ....
[riff A]

[riff C]

[Pre-Chorus] X 2
[Chorus]

[riff A]

[riff B]

[riff C]
There are those who think that they've ....

[riff A]
cards were stacked against them, ....

[riff A]

[riff C]

[Pre-Chorus] X 2

[Chorus]

[bridge]

[solo]

[Pre-Chorus] X 3

[Chorus]

[outro]


Ghost Of A Chance
by Rush.

riff A |--------------------------------------|
-------------------------------------------------
-------------------------------------------------
--4--4--4---4----4--4--4--4-----4-------4--4--4--
--0--2--0---2>3--2--0--2--0-----4-------0--3--0--
-----------------------------0--2----------------
-------------------------------------------------

play riff A again

verse;

p.m.------------------------------------------------------------------
------|

---------------------------------------------0------------------------
------
--------0-----------0------------0--------------0--------0-----------
0------
-----4-----4-----4------------------------4-----------4-----4-----4---
------
--2-----------0---------------4-----4--4-----------2-----------0------
------
-----------------------2----------------------------------------------
--2---
----------------------------------------------------------------------
------

p.m.------------------------------------------------------------------
----|

-----------------0-----------------------------------------------0----
-
-----0--------------0--------0-----------0-----------0--------------0-
-
--------------4-----------4-----4-----4-----------------4-------------
-
--4-----4--------------2-----------0--------------4-----------4-------
-
-----------2--------------------------------2--------------2----------
-
----------------------------------------------------------------------
-

p.m.--------------------------------------------|

-----------------------------------------0-----
--------0-----------0-----------0-----------0--
-----4-----4-----4-----------------4-----------
--2-----------0--------------4-----------------
-----------------------2--------------2--------

play that section again, but let note ring.


Pre chorus is just the intro riff.

Chorus:

(clean)
--9-------------------------------------------------------------------
-------
--10-------------------------------------2----------------------------
-------
--11-------------------------------------2----------------------------
-------
--12-------------------------------------4----------------------------
-------
----------------------------------------------------------------------
-------
----------------------------------------------------------------------
-------


-------------------------------------------------------------2----2---
-
--10--10--10------9----------9-------------------------------2----2---
-
--11--11--11------9----------9-------------------------------3----3---
-
--12--12--12------9----------9----------------------------------------
-
----------------------------------------------------------------------
-
----------------------------------------------------------------------
-

-----------------------------------------------9-----------------
-----------------------------------10------10--10-------------9--
----------2>(2.5)------------------11------11--11-------------9--
----2--4-----------4---------------------------------------------
-----------------------------------------------------------------
-----------------------------------------------------------------

------7---------------------------------------------------------------
-----------9------------------------2---2-------------------10\9-/11--
--9---------------------------------3---3------------11-----11\10/11--
------------------------------------4---4------------12-----12\11/12--
----------------------------------------------------------------------
----------------------------------------------------------------------


----------------------------------------------9--------9-----9---
--2--------------2>5>2---------------------9>10-----9>10-----9---
--3---------------------2--4/6vvvvvvvv---------------------------
--4--------------------------------------------------------------
-----------------------------------------------------------------
-----------------------------------------------------------------

|-- riff A ------------------------
--------|
distortion
-----7----------------------------------------------------------------
---------
------------------------------------10--10>9------------------------9-
---------
--9-----9-------------------------------------11--9vvvvv------9>11----
-11vvvv--
--------------------4\------------------------------------11----------
---------
--------------------4\------------------------------------------------
---------
----------------------------------------------------------------------
---------


Verse two is the sam eas verse one, but when you get too...

"Oh so many..... "

then play;
let ring-----------------------------------------|
-----------------------------------------2-----
--------2-----------2--------2--------------2--
-----4-----4-----4--------4-----4-----4--------
--4-----------2--------------------------------
-----------------------4-----------4-----------
play that twice, then at;


" ... we played."

play

-
--------2-----------2----------------------------
-----4-----4-----4-----------4--------4---4---4--
--4-----------2-----------2-----------0---3---0--
-----------------------4-------------------------
-------------------------------------------------
-------------------------------------------------


Chorus 2

Begining with;

"I don't believe..."

---9--9--9---9-----7-------------------7--7----------------2--
--10----10--10-----7-------------------7----------------2--2--
-------------------9-------------------9----------------3-----
--------------------------------------------------------------
--------------------------------------------------------------
--------------------------------------------------------------



--------------------------9---9---9-----------7-----------------------
---5--5--4--2------------10--10--10--9--------7-----------------------
---6--6--4--2---------------------------------9-----------------------
---------------------------------------------------------------9--11--
---------------------------------------------------------9/11---------
----------------------------------------------------------------------


------------------------------------------9--------7---
-----------------------------------------10>9------7---
---------9--11/13--11vvvvvvvvvv--------------------9---
---9/11------------------------------------------------
-------------------------------------------------------
-------------------------------------------------------

--------------------2------------------------------9---9------------
--------------------2-----------------------------10--10--9------7--
--------------------3------------4---------------------------11--9--
----/11-----------------------------4--2----------------------------
--------------------------------------------------------------------
--------------------------------------------------------------------



--------7--------------2---------------2-- riff A twice.
--------------------------2------------2--
----9------9------------------------------
------------------------------------------
------------------------------------------
------------------------------------------


solo
-----------------------------------------------------------
--9--10---9--12vvvvvvvv---10--12/14---12--14/17vvvvvvvvv\--
-----------------------------------------------------------
-----------------------------------------------------------
-----------------------------------------------------------
-----------------------------------------------------------

----------------14-----------14------14--17vvv--17>14------14---------
-
---------14>18------17>(19)------18--------------------17------
17>(19)-
--14>16---------------------------------------------------------------
-
----------------------------------------------------------------------
-
----------------------------------------------------------------------
-
----------------------------------------------------------------------
-


--14---------14--14---------------------------------------------
------17>14----------17>14------14--------------17--14--17--14--
----------------------------16------16>(18)---------------------
----------------------------------------------------------------
----------------------------------------------------------------
----------------------------------------------------------------

---------------------------------------------------------------------
--14----------17-----------------------------------14----------------
------16--14-----------------------------13>14>16------16>14vvvvvvv--
------------------16vvvvvvvv\-----14>16------------------------------
---------------------------------------------------------------------
---------------------------------------------------------------------

p.h.
v----v
---------------------------------------------------------------------
----------14--12--14--------------------------------------14--17-----
---13>14-------------------13--13--11------------16>(18)----------14-
-----------------------11--------------14vvvvvv----------------------
---------------------------------------------------------------------
---------------------------------------------------------------------

----------------------------14--17--16>12--14--------------
----------------14--15--17---------------------14vvvvvvv\--
--16/18vvvvvv\---------------------------------------------
-----------------------------------------------------------
-----------------------------------------------------------
-----------------------------------------------------------

--------------------------14--17---14--16--17vvvvv--16--17--19--16-
----------------14>16>17-------------------------------------------
---------14>16-----------------------------------------------------
--14>16------------------------------------------------------------
-------------------------------------------------------------------
-------------------------------------------------------------------

--19--19>(21)--19>(21)>19--16--17--19--19>(21)--19>(21)--
19>(21)vvvvvvvvv--
----------------------------------------------------------------------
-----
----------------------------------------------------------------------
-----
----------------------------------------------------------------------
-----
----------------------------------------------------------------------
-----
----------------------------------------------------------------------
-----


outro:
---------------------------------------------------
---------------------------------------------------
---11/13--9------13/14--13--13--11/13vvvvvvvvvv----
-------------11------------------------------------
---------------------------------------------------
---------------------------------------------------

---------14-----------14--------------------------------
-------------17>(19)------17vvvvvvv---14>12>14--12vvvv--
--14>16-------------------------------------------------
--------------------------------------------------------
--------------------------------------------------------
--------------------------------------------------------

--17>14--14---14--12--14--12vvv--14>(16)vvvvvvvvvv--12--14vvvvvv--
------------------------------------------------------------------
------------------------------------------------------------------
------------------------------------------------------------------
------------------------------------------------------------------
------------------------------------------------------------------

slow bend.
--14>(15)>14>12------12--14>(15)>14--14--12vvvvvvvv----
-----------------14------------------------------------
-------------------------------------------------------
-------------------------------------------------------
-------------------------------------------------------
-------------------------------------------------------

riff A till end.































"In The Mood" by RUSH

If you have any questions or suggestions, you can e-mail me at:
by-tor@protected.olga.net

Now to the Tab:


Rhythm #1 - the Main Riff[1of4]

...A..A
[--0--0------------------------------]
[--2--2------------------------------]
[--2--2------------2--5->-4----------]
[--2--2--4-----2-4----5->-4-2-4-2----]
[--0--0----3-4--------------------3--]
[------------------------------------]


Rhythm #2 - After Main Riff[2of4]
...C..C..C+ C C..C..C+ C
[--3--3--3--3--3--3--3--3------------------]
[--5--5--5--5--5--5--5--5---8->-7----------]
[--5--5--5--5--5--5--5--5---8->-7-5-7-5----]
[--5--5--7--5--5--5--7--5---------------6--]
[--3--3--3--3--3--3--3--3------------------]
[------------------------------------------]


Rhythm #3 - More Main Riff[3of4
...D..D..D+.D..D..D..D+ D...A A A+ A A A A+ A
[--5--5--5--5--5--5--5--5---0--0--0--0--0--0--0--0]
[--7--7--7--7--7--7--7--7---2--2--2--2--2--2--2--2]
[--7--7--7--7--7--7--7--7---2--2--2--2--2--2--2--2]
[--7--7--9--7--7--7--9--7---2--2--4--2--2--2--4--2]
[--5--5--5--5--5--5--5--5---0--0--0--0--0--0--0--0]
[-------------------------------------------------]


Rhythm #4 - Ending of Main Riff[4of4](also in Chorus)
.../G..G..G..G..F#.F..E.E.E.E
[--/3--3--3--3--2--1--------0-]
[--/3--3--3--3--2--1------0-0-] *Note - The last E chord is played
[--/4--4--4--4--3--2----1-1-1-] 4 times, but fanned.
[--/5--5--5--5--4--3--2-2-2---]
[--/5--5--5--5--4--3--2-2-----]
[--/3--3--3--3--2--1--0-------]




Chorus #1 - First Part[1of2]
...D..D..A..A..G..G..G..A
[--5--5--5--5--3--3--3--5--5--5--5]
[--7--7--5--5--3--3--3--5--5--5--5]
[--7--7--6--6--4--4--4--6--6--6--6]
[--7--7--7--7--5--5--5--7--7--7--7]
[--5--5--7--7--5--5--5--7--7--7--7]
[--------5--5--3--3--3--5--5--5--5]


Chorus #2 - Second Part[2of2]
...D..D..A..A..E
[--5--5--5--5--0-------------------]
[--7--7--5--5--0-------------------]
[--7--7--6--6--1-------------------]
[--7--7--7--7--2--2-2-4-2----------]
[--5--5--7--7--2----------4-2------]
[--------5--5--0-------------------]


Ending
...A..A.............A..A.............A..A.............A....A
[--0--0-------------0--0-------------0--0-------------0----0---]
[--2--2-------------2--2-------------2--2-------------2----2---]
[--2--2-------------2--2-------------2--2-------------2----2---]
[--2--2--4-----2-4--2--2--4-----2-4--2--2--4-----2-4--2----2---]
[--0--0----3-4------0--0----3-4------0--0----3-4------0----0---]
[--------------------------------------------------------------]

Those are the riffs for the song except for the solo. Now to where
they go
in the song.

I don't have the lyrics but the riffs go like this:

Rhythm#1 (Repeat 3 times)
Rhythm#2
Rhythm#3
Rhythm#4

Rhythm#1
Rhythm#2
Rhythm#3
Rhythm#4

Chorus#1
Chorus#2
Chorus#1
Rhythm#4

Rhythm#1
Rhythm#2
Rhythm#3
Rhythm#4

Rhythm#1
Rhythm#2
Rhythm#3
Rhythm#4



Chorus#1
Chorus#2
Chorus#1
Rhythm#4

************SOLO***************

Chorus#1
Chorus#2
Chorus#1
Rhythm#4

Rhythm#1 (Repeat 3 times)
Rhythm#2
Rhythm#3
Rhythm#4

Rhythm#1
Rhythm#2
Rhythm#3
Rhythm#4

Chorus#1
Chorus#2
Chorus#1
Rhythm#4

Ending

Jacob's Ladder guitar tabs

Transcription by Charles Grogan (s3sijdp@protected.olga.net)


--------------8----|---------4-------|---------1-----|---------3------
|
-----------------8-|-----------4-----|-----------1---|-----------3----
|
---9-------9-------|-------5-----5---|-------2-----2-|-------4-----4--
|
10------10---10----|-----6---------6-|-----3---------|-----5---------
5|
-----10---------10-|---6-------------|---3-----------|---5------------
|
-------------------|-4---------------|-1-------------|-3--------------
|


---------4-----|---------0-----|-----------8-----|---------4-----|---
-----------4---|-----------0---|-------------8---|-----------4---|---
-------5-----5-|-------1-----1-|---------9-----9-|-------5-----5-|---
-----6---------|-----2---------|------10---------|-----6---------|---
---6-----------|---2-----------|---10------------|---6-----------|---
-4-------------|-0-------------|-8---------------|-4-------------|---


---------------|---------3-------|---------4-----|---------0-----|---
---------0-----|-----------3-----|-----------4---|-----------0---|---
-------2---2---|-------4-----4---|-------5-----5-|-------1-----1-|---
-----3-------3-|-----5---------5-|-----6---------|-----2---------|---
---3-----------|---5-------------|---6-----------|---2-----------|---
-1-------------|-3---------------|-4-------------|-0-------------|---



|----------------------------------------|---------------------------
|----------------------------------------|---------------------------
|----------------------------------------|---------------------------
|----------------------------------------|---------------------------
|-3-3-3-3----3-3-3----3-3-3-3----3-3-3-3-|---------------------------
|----------------------------------------|---------------------------
[repeat 6 times]

Lyrics start here, during repetitions. ("The clouds...")


----1-3-4-|-----0-----0-----0-----0-|---------------------------------
--
----1-3-4-|-----0-----0-----0-----0-|---------------------------------
--
----2-4-5-|-4-4-4-5-5-5-----3-----4-|---------------------------------
--
----3-5-6-|-4-4-4-5-5-5-4-4-4-5-5-5-|---------------------------------
--
-3--3-5-6-|-2-2-4-3-3-3-4-4-4-5-5-5-|---------------------------------
--
----1-3-4-|-------------2-2-4-3-3-3-|---------------------------------
--


-2-2-3-2-2-3-3-|-----------------------------------------|-----------
-2-2-3-2-2-3-3-|---------5->-(7)-5---5->-(7)-5---5->-(7)-|-----------
-4-4-5-3-3-4-4-|-------7-----------7-----------7---------|-----------
-4-4-5-4-4-5-5-|-----7-----------------------------------|-----------
-2-2-3-4-4-5-5-|---5-------------------------------------|-----------
-------2-2-3-3-|-7---------------------------------------|-----------


->--9-7-6--9->-10--9-7--9-10->-12-->-(down)-|------------------------
--------------------------------------------|------------------------
->-11-9-8-11->-12-11-9-11-12->-14-->-(down)-|------------------------
--------------------------------------------|------------------------
--------------------------------------------|------------------------
--------------------------------------------|------------------------


------------------------------------16->-(17)------------------------
18->-(19)-!--18->-(19)--18->-(19)-!-----------17->-(19)-(19)->-17-15-
---------------------------------------------------------------------
---------------------------------------------------------------------
---------------------------------------------------------------------
---------------------------------------------------------------------


17->-(19)---------------------------------------|--------------------
----------17->-(18)--(19)->-17-15--14->-(16)----|--------------------
---------------------------------------------16-|--------------------
------------------------------------------------|--------------------
------------------------------------------------|--------------------
------------------------------------------------|--------------------


---------_--_--_--_--_-------_--_--_--_--------------|---------------
18-19--18-19-18-15-18-15->-14-15-14-15-14--18->-(19)-|---------------
-----------------------------------------------------|---------------
-----------------------------------------------------|---------------
-----------------------------------------------------|---------------
-----------------------------------------------------|---------------


------------------------------------------------|--------------------
---------10-10-10-------------------------------|--------------------
9->-(11)----------(11)->-9-7-9->-(11)-------6-!-|--------------------
--------------------------------------7->-9-----|--------------------
------------------------------------------------|--------------------
------------------------------------------------|--------------------


-----0-----0-|-------------------|-------------------|---|-----------
-----0-----0-|-------------------|-2-2-2-2-(2)-3-3-0-|---|-----------
-4-4-4-5-5-5-|-3-3-3-3--(3)--4-1-|-4-4-4-4-(4)-5-5-2-|-4-|-----------
-4-4-4-5-5-5-|-4-4-4-4--(4)--5-2-|-4-4-4-4-(4)-5-5-2-|-5-|-----------
-2-2-2-3-3-3-|-4-4-4-4--(4)--5-2-|-2-2-2-2-(2)-3-3-0-|-5-|-----------
-------------|-2-2-2-2--(2)--3-0-|-------------------|-3-|-----------


-----------------|-----------|---------------------------------------
-----------------|-----------|---------------------------------------
7-7-7-7---7-7-7--|-7-7-7-7-7-|---------------------------------------
7-7-7-7---7-7-7--|-7-7-7-7-7-|---------------------------------------
5-5-5-5---5-5-5--|-5-5-5-5-5-|---------------------------------------
-----------------|-----------|---------------------------------------


-------------|---------------------------|---------------------------
-------------|---------------------------|---------------------------
-----4-----7-|-------4-----7-----4-----7-|---------------------------
---7---5-4---|-7---7---5-4-----7---5-4---|---------------------------
-5-----------|---5-----------5-----------|---------------------------
-------------|---------------------------|---------------------------


---------------------------------------------------------------------
---------------------------------------------------------------------
-----4-----7-----4-----7-------4-----7-----4-----7-------------------
---7---5-4-----7---5-4---7---7---5-4-----7---5-4-------1-----4-----1-
-5-----------5-------------5-----------5-------------4---2-1-----4---
---------------------------------------------------2-----------2-----


-------------------------------------|-------------------------------
-------------------------------------|-------------------------------
-------------------------------------|-------------------------------
-----4-------1-----4-------1-----4---|-------------------------------
-2-1---4---4---2-1-------4---2-1---4-|-------------------------------
---------2-------------2-------------|-------------------------------


---------------------------------------------------------------------
---------------------------------------------------------------------
----4-----7-9---6-----7---------------------------------4-----7-9---6
--7---5-4-----9---7-6---------1-----4-----1-----4-----7---5-4-----9--
5---------------------------4---2-1-----4---2-1---4-5----------------
--------------------------2-----------2------------------------------


------|--------------------------------------------------------------
------|--------------------------------------------------------------
----9-|--------------------------------------------------------------
7-6---|--------------------------------------------------------------
------|--------------------------------------------------------------
------|--------------------------------------------------------------


---------------------------------------------------------------------
---------------------------------------------------------------------
---------------------------------------------------------------------
4-4-4-4-4---4-4-4-4---4-4-4-4---4-4-4---4-4-4---4-4-4---4-4-4--------
4-4-4-4-4---4-4-4-4---4-4-4-4---4-4-4---4-4-4---4-4-4---4-4-4--------
2-2-2-2-2---2-2-2-2---2-2-2-2---2-2-2---2-2-2---2-2-2---2-2-2--------
----- ----- ----- -----
3 3 3 3


--------------------|-------|-0-2-------------9--10--5-|--------------
-
--------------------|-------|-0-2------------10--10--5-|--------------
-
--------------------|-------|-2-4-------------9--11--6-|--------------
-
4-4-4---4-4---4-4-4-|-4-4-4-|-2-4-4-2--------11--12--7-|--------------
-
4-4-4---4-4---4-4-4-|-4-4-4-|-0-2-4-2-4-2-0--12--12--7-|--------------
-
2-2-2---2-2---2-2-2-|-2-2-2-|-----2-0---------9--10--5-|--------------
-
-----
3

---
Explanation on used symbols:

| - A pair of these indicate a part of music, not the usuals bars.
: - Indicates that a part is to be repeated. This may be ommited, you
should
hear it too.
_ - Indicates a hammer-on or pull-off (You should know which is
appropriate)
> - Indicates a bend-up or down or a slide. With a bend, the note to
bend to
is between '(' and ')'. Use the whammy for a downbend. With a
slide, the
follow-up note is the one to be slid to.
! - Indicates vibrato.
^ - Indicates harmonics. Is printed below the note.
--- - Indicates a triplet






Kid Gloves


Kid Gloves
Rush, from _Grace_Under_Pressure_

transcription by pat@protected.olga.net (Patrick M. Ryan)

Notes:
This is a fun tune. Play it loud.
In the first measure of the intro, there are some extra
muffled notes between the notes I have tabbed below. First prize
to whoever figures them all out and tells me ('cause I don't
know what they are!). Extra credit for the rest of the solo.



intro/melody (i believe this is in 5/4)

riff [A]
----------------------------------------------
----------------------------------------------
----------------------------------------2----- ( repeat 4 times )
----0-4-0-2---0-2-0-----0-4-0-2---0-2-0-------
------------0-------2-----------0-------------
--3-------------------3-----------------------


riff [B]
Asus A
--10-10--9--9-
--10-10-10-10-
---9--9--9--9-
--------------
--------------
--------------



verses
(chords without tabs are in their usual spellings)

riff [A]
A world of difference
A world so out of touch
riff [A]
Overwhelmed by everything
But wanting more so much --

G B
Call it blind ...
A riff [B]
Call it blind m....
G B
Call each ...
A A A A A A A
our voices rude -- ...
G B
Then you learn ...
B D A A A
That it's cool ...


bridge to the chorus:

------------------------------------------
------------------------------------------
--------------------------2---------------
----0-4-2---0-2-4---0-2-0-----------------
----------2-------0-----------------------
--3---------------------------------------

chorus 1

E F# A D F# E F# A F# D

---0-----0-----0-----------0-----0-----0---------------
---0-----0-----0-----------0-----0-----0---------------
-1-----3-----6-----7=11--1-----3-----6-----11=7-------- o
-2-----4-----7-----7=11--2-----4-----7-----11=7-------- o ( repeat 2
times)
-2-----4-----7-----5==9--2-----4-----7------9=5--------
-0-----0-----0-----------0-----0-----0-----------------

Handle with kid ...

riff [A]

verse 2

A world of ....

(bass bridge)

solo

(let ring) (very fast scuff) (ring)
---5-5-5-5-5-5-5-4-----------9---------------(7)------
---5-5-5-5-5-5-5-5----------10---------------(7)------
---4-4-4-4-4-4-4-4-----------9---------------(7)------
------------------------------------------------------
------------------------------------------------------
------------------------------------------------------

------------------------------------------------------
------------------------------------------------------
------------------------------------------------------
------------------------------------------------------
------------------------------------------------------
------------------------------------------------------

------------------------------------------------------
------------------------------------------------------
------------------------------------------------------
------------------------------------------------------
------------------------------------------------------
------------------------------------------------------



chorus 2

Handle with kid ....


end
repeat E F# A phrase several times, then:

E E E E E E E E E


Rush - La Villa Strangiato

Rush - La Villa Strangiato

From the CD 'Hemispheres'
Written by Lee/Lifeson/Peart
Mercury/Polygram Records 822547-2

This tab is a reworked version of the one posted by Andrew
Westmeyer <qwerty+@cmu.edu>. The song is entirely in the key of C.
Standard
[EADGBe] tuning. The intro is played on a nylon-stringed acoustic, the
rest
of the song has doubled guitars with distortion.

Jimmy Pena - jimmy@protected.olga.net

| = not a standard bar line; just used to separate music
~ = vibrato or held note
x = percussive note with no pitch; muted note
h = hammer on
p = pull off
s = slide
b = bend string up to indicated pitch/fret
r = release bend to indicated string/fret
/ = slide up from infinity
\ = slide down into infinity
[5] = artificial harmonic (use thumb to follow through the pick
attack)
o \_
o / repeat sign (always look for these!)
x\ _
x\ pick slide; slide the edge of the pick along the strings
PM = Palm Mute; lightly touch the strings at the bridge with the edge
of
the fret hand

Song progression:

[Intro]
E5 (B7) E5 (B7) E5
e:-----2--|-5------|-2------|-5~------|-2------|-5------|-2--0---|
B:--------|-----4--|----5---|------4--|----5---|-5---4--|-4--5---|
G:--------|--------|----4---|---------|----4---|-----4--|----4---|
D:--------|--------|----2---|---------|----2---|--------|----2---|
A:--------|--------|----2---|---------|----2---|--------|----2---|
E:--------|--------|--------|---------|--------|--------|----0---|

(faster)
e:-0---0-1p0---0-3p1p0-0-------------------------------------|
B:---3-------3---------0-3-1p0-0h1-3p1p0---------------------|
G:---------------------------------------2-[0]h2-2-2-1-2-4p2-|
D:-----------------------------------------------------------|
A:-----------------------------------------------------------|
E:-----------------------------------------------------------|

e:-----------------------------------------------|
B:-----------------------------------------------|
G:-----------------------------------------------|
D:-3-3-0-0-3-3-5-5-------------------0-----------|
A:-----------------0-0-3-3-2-0-2-3-3---3p2-2-----|
E:-------------------------------------------3-3-|

F
e:-1~~------------------|-(1)----|
B:-1~~------------------|-(1)----|
G:-2~~------------------|-(2)----|
D:-3~~------------------|-(3)----|
A:-3~~------------------|-(3)----|
E:-1~~------------------|-(1)----|
| | |
| | |
| C9 | |
e:----------8~----------|--------|
B:-------------8~-------|--------|
G:-------------------0--|---%----|
D:-------0--------0-----|--------|
A:----7-----------------|--------|
E:-8--------------------|--------|
let ring throughout

Repeat C9 figure 58 times. From Westmeyer's tab:

During this time three synthesizers and a glockenspiel enter.
They
are arranged for guitar below. Synth I and the glockenspiel are on the
same
tab, as well as synthesizers II and III. The glockenspiel tab is the
part
with the much higher notes; Synth III is also much higher than synth
II
(synth II sounds like an 8va bassa). The following tab starts on the
eighth
measure after the above tab.

e:---------|-----22--|-20----------|-(20)-------|----------|----------
|
B:---------|---------|-------------|--------15--|-13-------|-(13)-----
|
G:---------|---------|-------------|------------|----------|----------
|
D:------7--|-5-------|-(5)---------|-(5)--------|-(5)------|----------
|
A:---------|---------|-------------|------------|-------5--|-3--------
|
E:---------|---------|-------------|------------|----------|----------
|
| | | | | | |
| | | | | | |
e:---------|---------|-------------|------------|----------|----------
|
B:---------|---------|-------------|------------|----------|----------
|
G:---------|---------|-----5-------|------------|----------|----------
|
D:---------|---------|--------3-5--|------------|----------|----------
|
A:---------|---------|-3-----------|-3----------|-(3)------|-(3)------
|
E:---------|---------|-------------|------------|----------|----------
|

e:--------------------|-------------------|------20--15-17-----|
B:--------------------|-------------------|--------------------|
G:--------------------|-------------------|-17-----------------|
D:--------------------|-------------------|-----------------7--|
A:-(3)----------------|-(3)---------------|-(3)----------------|
E:--------------------|-------------------|--------------------|
| | | |
| | | |
e:--------------------|----12-------------|--------------------|
B:-------------13p12h-|-13----15-13-------|--------------------|
G:-----5--------------|--------------12---|-(12)---------------|
D:--------3-5---------|-------------------|--------------------|
A:-3------------------|-3-----------------|-(3)----------------|
E:--------------------|-------------------|--------------------|

The glockenspiel exits during this next sequence of measures; the
other three instruments remain.

e:---------|---------|---------|----------|--------------|
B:---------|---------|---------|----------|--------------|
G:-17------|-(17)----|---------|----------|--------------|
D:-5-------|-(5)-----|-(5)-----|-(5)------|--------------|
A:---------|---------|---------|-------5--|-3------------|
E:---------|---------|---------|----------|--------------|
| | | | | |
| | | | | |
e:---------|---------|---------|----------|--------------|
B:---------|---------|---------|----------|-------13p12h-|
G:-(12)----|-(12)----|---------|----------|--------------|
D:---------|---------|---------|----------|--------------|
A:-(3)-----|-(3)-----|-(3)-----|-(3)------|-(3)----------|
E:---------|---------|---------|----------|--------------|

e:------------------|---------|---------------|--------------|
B:------------------|---------|---------------|--------------|
G:------------------|---------|---------------|--------------|
D:------------------|---------|---------------|--------------|
A:-(3)--------------|-(3)-----|-(3)-----------|-(3)----------|
E:------------------|---------|---------------|--------------|
| | | | |
| | | | |
e:----12------------|---------|---------------|--------------|
B:-13----15-13------|---------|---------------|-------13p12h-|
G:-------------12---|-(12)----|-(12)--5-------|-(12)---------|
D:------------------|---------|----------3-5--|--------------|
A:-(3)--------------|-(3)-----|-(3)-----------|-3------------|
E:------------------|---------|---------------|--------------|

Synth III exits in the next sequence of tab.

e:---------------|--------|--------|--------|--------|---------|------
-|
B:---------------|--------|--------|--------|--------|---------|------
-|
G:---------------|--------|--------|--------|--------|---------|------
-|
D:---------------|--------|--------|--------|--------|------7--|-5----
-|
A:-(3)-----------|-(3)----|-(3)----|-(3)----|-(3)----|-(3)-----|------
-|
E:---------------|--------|--------|--------|--------|---------|------
-|
| | | | | | | |
| | | | | | | |
e:----12---------|--------|--------|--------|--------|---------|------
-|
B:-13----15-13---|-(13)---|-(13)---|-(13)---|--------|---------|------
-|
G:---------------|--------|--------|--------|--------|---------|------
-|
D:---------------|--------|--------|--------|--------|---------|------
-|
A:-(3)-----------|-(3)----|-(3)----|-(3)----|-(3)----|-(3)-----|-5----
-|
E:---------------|--------|--------|--------|--------|---------|------
-|

e:---------|-------|-------|-------|-------|-------|-------|
B:---------|-------|-------|-------|-------|-------|-------|
G:---------|-------|-------|-------|-------|-------|-------|
D:-(5)-----|-(5)---|-(5)---|-(5)---|-(5)---|-(5)---|-(5)---|
A:---------|-------|-------|-------|-------|-------|-------|
E:---------|-------|-------|-------|-------|-------|-------|
| | | | | | | |
| | | | | | | |
e:---------|-------|-------|-------|-------|-------|-------|
B:---------|-------|-------|-------|-------|-------|-------|
G:---------|-------|-------|-------|-------|-------|-------|
D:-(5)--2--|-------|-------|-5-----|-(5)---|-------|-------|
A:---------|-3-----|-(3)---|-------|-------|-3-----|-(3)---|
E:---------|-------|-------|-------|-------|-------|-------|

Synths I and II sustain final notes for 16 measures, then exit.
The
doubled guitars with distortion enter at approx. 1:59 of the song.

C
e:-------------|-------------|-------------|---------------|
B:---5--5--5~--|---5--5--5~--|---5--5--5~--|---5--5--5~~\--|
G:---5--5--5~--|---5--5--5~--|---5--5--5~--|---5--5--5~~\--|
D:---5--5--5~--|---5--5--5~--|---5--5--5~--|---5--5--5~~\--|
A:---3--3--3~--|---3--3--3~--|---3--3--3~--|---3--3--3~~\--|
E:-------------|-------------|-------------|---------------|

A D E D
e:-----------------------|-----------------------|-------------|------
----|
B:--2--2--2-2p0----------|--2--2--2-2p0----------|--2---2--2-2-|-7--9-
-7\-|
G:o-2--2--2-----2p0-----o|o-2--2--2-----2p0-----o|--2---2--2-2-|-7--9-
-7\-|
D:o-2--2--2---------2p0-o|o-2--2--2---------2p0-o|--2---2--2-2-|-7--9-
-7\-|
A:--0--0--0--------------|--0--0--0--------------|--0---0--0-0-|-5--7-
-5\-|
E:-----------------------|-----------------------|-------------|------
----|

A D E D
e:-----------------------|-------------|----------|-------------------
----|
B:--2--2--2-2p0----------|--2---2--2-2-|-7--9--7\-|--2--2--2-2p0------
----|
G:o-2--2--2-----2p0-----o|--2---2--2-2-|-7--9--7\-|o-2--2--2-----2p0--
---o|
D:o-2--2--2---------2p0-o|--2---2--2-2-|-7--9--7\-|o-2--2--2---------
2p0-o|
A:--0--0--0--------------|--0---0--0-0-|-5--7--5\-|--0--0--0----------
----|
E:-----------------------|-------------|----------|-------------------
----|

C F#
e:---------------------|---------------|--------------|--------------|
B:---------------------|---------------|--------------|--------------|
G:---------------------|------7--------|--------11----|-----------11-|
D:-3s5--3-5s7--5--9--7-|-10-9---10-9-7-|-----11----11-|--------11----|
A:---------------------|---------------|-9~-----------|-9~---9-------|
E:---------------------|---------------|--------------|----9---------|

C F#
e:---------------------|---------------|--------------|--------------|
B:---------------------|---------------|--------------|--------------|
G:---------------------|------7--------|--------------|--------------|
D:-3s5--3-5s7--5--9--7-|-10-9---10-9-7-|--------------|--------------|
A:---------------------|---------------|-9~-----------|------9-------|
E:---------------------|---------------|----9~~s2~----|--9~~---9\----|

A D E D
e:-----------------------|-----------------------|-------------|------
----|
B:--2--2--2-2p0----------|--2--2--2-2p0----------|--2---2--2-2-|-7--9-
-7\-|
G:o-2--2--2-----2p0-----o|o-2--2--2-----2p0-----o|--2---2--2-2-|-7--9-
-7\-|
D:o-2--2--2---------2p0-o|o-2--2--2---------2p0-o|--2---2--2-2-|-7--9-
-7\-|
A:--0--0--0--------------|--0--0--0--------------|--0---0--0-0-|-5--7-
-5\-|
E:-----------------------|-----------------------|-------------|------
----|

A D E D
e:-----------------------|-------------|----------|-------------------
----|
B:--2--2--2-2p0----------|--2---2--2-2-|-7--9--7\-|--2--2--2-2p0------
----|
G:o-2--2--2-----2p0-----o|--2---2--2-2-|-7--9--7\-|o-2--2--2-----2p0--
---o|
D:o-2--2--2---------2p0-o|--2---2--2-2-|-7--9--7\-|o-2--2--2---------
2p0-o|
A:--0--0--0--------------|--0---0--0-0-|-5--7--5\-|--0--0--0----------
----|
E:-----------------------|-------------|----------|-------------------
----|

C F#
e:---------------------|---------------|--------------|--------------|
B:---------------------|---------------|--------------|--------------|
G:---------------------|------7--------|--------11----|-----------11-|
D:-3s5--3-5s7--5--9--7-|-10-9---10-9-7-|-----11----11-|--------11----|
A:---------------------|---------------|-9~-----------|-9~---9-------|
E:---------------------|---------------|--------------|----9---------|

C F#
e:---------------------|---------------|--------------|--------------|
B:---------------------|---------------|--------------|--------------|
G:---------------------|------7--------|--------------|--------------|
D:-3s5--3-5s7--5--9--7-|-10-9---10-9-7-|--------------|--------------|
A:---------------------|---------------|-9~-----------|------9-------|
E:---------------------|---------------|----9~~s2~----|--9~~---9\----|

e:-----------------------|-----------------------|
B:--2--2--2-2p0----------|--2--2--2-2p0----------|
G:o-2--2--2-----2p0-----o|o-2--2--2-----2p0-----o|
D:o-2--2--2---------2p0-o|o-2--2--2---------2p0-o|
A:--0--0--0--------------|--0--0--0--------------|
E:-----------------------|-----------------------|

Half-time in 7/8:
F A F
e:--1~---|--1~---|--5~---|--5~---|--1~---|--1~---|--5~~~---|
B:--1~---|--1~---|--2~---|--2~---|--1~---|--1~---|--2~~~---|
G:--2~---|--2~---|--2~---|--2~---|--2~---|--2~---|--2~~~---|
D:--3~---|--3~---|--2~---|--2~---|--3~---|--3~---|--2~~~---|
A:--3~---|--3~---|--0~---|--0~---|--3~---|--3~---|--0~~~---|
E:--1~---|--1~---|-------|-------|--1~---|--1~---|---------|

[Guitar Solo 1]

(The first two notes are ghost bends - bend the 7th fret up a
whole
step, strike the note, release the string slowly while swelling the
volume.
Then bend the 10th fret up a whole step, strike and release slowly
while
increasing the volume.)

(F) (Am)
e:--------|----------|---------|----------|
B:--------|----------|-12r10~~-|-(10)-----|
G:-9r7~~--|-(7)------|---------|----------|
D:--------|----------|---------|----------|
A:--------|----------|---------|----------|
E:--------|----------|---------|----------|

(All of these are volume swells)
(F) (Am)
e:------------------|-----------|--------------10-8-7-|----8-7--------
--|
B:-6-8-5-----5------|-----------|---------10-8--------|-10-----10-8-
10~-|
G:-------7-5---7-4~-|-(4)---7-5-|---------------------|---------------
--|
D:------------------|-----------|-7-(7)~--------------|---------------
--|
A:------------------|-----------|---------------------|---------------
--|
E:------------------|-----------|---------------------|---------------
--|

(F)
e:-----------------------------------|----------|
B:-----------------------------------|----------|
G:---5-7-7b9r7p5-7p5---5-7-7b9-7-5s9-|-(9)~-----|
D:-7-----------------7---------------|----------|
A:-----------------------------------|----------|
E:-----------------------------------|----------|

(Am)
e:-8r7-7-5---5---------------|---------------------|
B:---------8---8-5-----8-5---|---8-5---------------|
G:-----------------7-5-----7-|-5-----7-5-4-5-4-----|
D:---------------------------|-----------------7~--|
A:---------------------------|---------------------|
E:---------------------------|---------------------|

(F)
e:---------7-7-7-7-7-------------|-------13-13-12-15-13-12----12-|
B:---10-10-----------8-8-10------|-------------------------15----|
G:-9------------------------9-9~-|-(9)~--------------------------|
D:-------------------------------|-------------------------------|
A:-------------------------------|-------------------------------|
E:-------------------------------|-------------------------------|

(Am)
e:------------------12-12-12-12----|--------------------|
B:-15-13-12-15-13~--------------15-|-12-13--------------|
G:---------------------------------|-------12~~h14~-----|
D:---------------------------------|--------------------|
A:---------------------------------|--------------------|
E:---------------------------------|--------------------|

(F)
e:---------------------------------------|--------17b19~-|
B:-15b17~~-15b17r15-15-13-12-13p12----12-|---------------|
G:---------------------------------14----|-14~-----------|
D:---------------------------------------|---------------|
A:---------------------------------------|---------------|
E:---------------------------------------|---------------|

(Am)
e:-----17b19~-12-13-15-12h13p12----|-12-------------------------------
-------|
B:------------------------------15-|----15b17~~~-15b17r15-[15]-12-13-
12----12|
G:---------------------------------|----------------------------------
--14---|
D:---------------------------------|----------------------------------
-------|
A:---------------------------------|----------------------------------
-------|
E:---------------------------------|----------------------------------
-------|

(F)
e:-------------------------------|--------------------|
B:-------------------------------|--------------------|
G:-14-12-14b16-14b16-14~-14b16~~-|----------5-7-7b9r7-|
D:-------------------------------|--------7-----------|
A:-------------------------------|--------------------|
E:-------------------------------|--------------------|

(Am)
e:-------------------------|-----------------------------------|
B:-------------------------|-----------------------------------|
G:-7-5-4-5-4~--0-4-5-4-2-4-|-2h4p2p0-2---0-0-0------x-12b14~---|
D:-------------------------|-----------------------------------|
A:-------------------------|-----------X\------X\--------------|
E:-------------------------|-----------X\------X\--------------|

(F)
e:-------------------------------------------|
B:-------------------------------------------|
G:-12b14-12b14-12b14-12b14-12b14-12b13-12b14-|
D:-------------------------------------------|
A:-------------------------------------------|
E:-------------------------------------------|

(faster)
e:-------------------------------------------------------------|
B:---------------------------------------8-8-8-8-8-8-10-10p8---|
G:-12-10-9h10p9----9------------7s9-9-9----------------------9-|
D:--------------12---12~--(12)---------------------------------|
A:-------------------------------------------------------------|
E:-------------------------------------------------------------|

(Am)
e:-------------------------------------------------------------|
B:----------------------------------------------10-11p10-12p10-|
G:-12p9-10p9----9----------------9h10p9-10-9-11----------------|
D:-----------12---12p10----10-12-------------------------------|
A:----------------------12-------------------------------------|
E:-------------------------------------------------------------|

e:----------------------------------------------|
B:-13-13-12-10----13------------10-12-12-13-12--|
G:-------------12----12-9--9s11-----------------|
D:----------------------------------------------|
A:----------------------------------------------|
E:----------------------------------------------|

e:----------------------12-12-12----12-13-13-13-12-13-15-15-15--|
B:-12-13-13-15-15-13-15----------15-----------------------------|
G:--------------------------------------------------------------|
D:--------------------------------------------------------------|
A:--------------------------------------------------------------|
E:--------------------------------------------------------------|

(F)
e:-13-15-17-17-17b19-17b19~-|-17b19-17b19~-17-12h13p12----13----------
|
B:--------------------------|--------------------------15----15-13p12-
|
G:--------------------------|-----------------------------------------
|
D:--------------------------|-----------------------------------------
|
A:--------------------------|-----------------------------------------
|
E:--------------------------|-----------------------------------------
|

e:-------------------------------------------------|
B:----12------------5-5-5-5-6-8-6p5---5------------|
G:-14----14---(14)\-----------------7---7-5-4-5~-4-|
D:-------------------------------------------------|
A:-------------------------------------------------|
E:-------------------------------------------------|

(Am) (faster)
e:---------------------5-7p5-7-8-8p7p5---5----------------------------
-----|
B:-----5-6p5---5-7-8-8-----------------8---8-8-5-6p5---5-5-5-6-8-5----
-----|
G:-6-7-------7---------------------------------------7-------------
7p0-7-5-|
D:--------------------------------------------------------------------
-----|
A:--------------------------------------------------------------------
-----|
E:--------------------------------------------------------------------
-----|

e:--------------------------------------------------------------------
|
B:--------------------------------------------------------------------
|
G:-4h5p4---7-------------------------------0--------------------------
|
D:-------7---7-7-5-3-3-3-3p2-----------------0h3p2---3-3p2-3-2--------
|
A:---------------------------3-3-2-2-0-2-3---------3-----------3------
|
E:---------------------------------------------------------------0s8--
|

[End Guitar Solo 1]

PM throughout
(F) (Am)
e:-------------------------------|-------------------------------|
B:-------------------------------|-------------------------------|
G:o-----------------------------o|o-----------------------------o|
D:o-----5-----5-------5-----5---o|o-----------------------------o|
A:----7-----7---5---7-----7---5--|------7-----7-5-----7-----7-5--|
E:--8-----8-------8-----8--------|--5-8---5-8-----5-8---5-8------|

(F) (Am)
e:-------------------------------|-------------------------------|
B:-------------------------------|-------------------------------|
G:o-----------------------------o|o-----------------------------o|
D:o-----5-----5-------5-----5---o|o-----------------------------o|
A:----7-----7---5---7-----7---5--|------7-----7-5-----7-----7-5--|
E:--8-----8-------8-----8--------|--5-8---5-8-----5-8---5-8------|

End PM
(F) (Am)
e:-------------------------------|-------------------------------|
B:-------------------------------|-------------------------------|
G:o-----------------------------o|o-----------------------------o|
D:o-----5-----5-------5-----5---o|o-----------------------------o|
A:----7-----7---5---7-----7---5--|------7-----7-5-----7-----7-5--|
E:--8-----8-------8-----8--------|--5-8---5-8-----5-8---5-8------|

(Am)
e:--------------------|--------------------|
B:--------------------|--------------------|
G:o------------------o|o------------------o|
D:o------------------o|o------------------o|
A:----7-6----5p3---3--|----7-6----5p3---3--|
E:--5------------5----|--5------------5----|

e:---------------------|---------------------|----------------------|
B:---------------------|---------------------|----------------------|
G:o-------------------o|---------------------|----------------------|
D:o-------------------o|---------------------|----------------------|
A:----7-6---5p3---3-2--|----7-6---5p3---3-2--|--6h7p6p5\3---3-------|
E:--5-----------5------|--5-----------5------|------------5---5\----|

e:-------------------|-----------------|-------------------|----------
-------|
B:-------------------|-----------------|-------------------|----------
-------|
G:---9-8-7p5---5-7b9~|---9-8-7p5---5-4~|---9-8-7p5---5-7b9~|-
8b9r8s7p5---5---|
D:-7---------7-------|-7---------7-----|-7---------7-------|----------
-7---7\|
A:-------------------|-----------------|-------------------|----------
-------|
E:-------------------|-----------------|-------------------|----------
-------|

[Guitar tacet for 2 measures]

With chorus throughout:
A Ab G F# F E Eb D C# C B Bb A G C
e:---------------------|----------------|----3--|-(3)--|-------|------
|
B:-14--13--12--11-10-9-|-8--7--6--5-4-3-|-2--3--|-(3)--|-5--5--|-(5)--
|
G:-14--13--12--11-10-9-|-8--7--6--5-4-3-|-2--4--|-(4)--|-5--5--|-(5)--
|
D:-14--13--12--11-10-9-|-8--7--6--5-4-3-|-2--5--|-(5)--|-5--5--|-(5)--
|
A:-12--11--10--9--8--7-|-6--5--4--3-2-1-|-0--5--|-(5)--|-3--3--|-(3)--
|
E:---------------------|----------------|----3--|-(3)--|-3--3--|-(3)--
|

A Ab G F# F E D G A G
e:-------------------|--------|---|-------------|---------------|-----
---|
B:-14-13-12--11-10-9-|-7------|---|-------------|---------------|-----
---|
G:-14-13-12--11-10-9-|-7--4/6-|-4-|-------------|-----------5~--|-----
---|
D:-14-13-12--11-10-9-|-7--5/7-|-5-|-------------|-----5--7------|-7---
---|
A:-12-11-10--9--8--7-|-5--5/7-|-5-|-------3--5--|-7~------------|-----
---|
E:-------------------|----3/5-|-3-|-3--5--------|---------------|-----
---|

C A G C E A
e:------|----------|--------|--3-3-----3-3--|------------------------|
B:------|---5------|--2-----|--3-3-----3-3--|--5--5--5/--9--9-9\--2--|
G:------|---5------|--2-----|--4-4-----4-4--|--5--5--5/--9--9-9\--2--|
D:------|---5------|--2-----|--5-5-----5-5--|--5--5--5/--9--9-9\--2--|
A:------|---3------|--0-----|--5-5-----5-5--|--3--3--3/--7--7-7\--0--|
E:------|---3------|--------|--3-3-----3-3--|------------------------|

[Guitar Solo 2]

Play with slapback echo (~50 ms)
(C) (F#)
e:-----------------|---------------------|-----------------|
B:-7b8r7b9b10------|---------------------|-------7-7-7-----|
G:-----------------|--8--8-8-8-8~--------|-------------6~--|
D:-----------------|---------------------|--4--4-----------|
A:-----------------|---------------------|-----------------|
E:-----------------|---------------------|-----------------|

(C)
e:------------------|--------------------------------|----------------
---|
B:-------7-7--------|-x-13-13-13b-13b14-13b15-13b16--|----13b17---\10-
---|
G:-----------6~--x--|-x------------------------------|----------------
---|
D:-4-4-4------------|--------------------------------|----------------
---|
A:------------------|--------------------------------|----------------
9~-|
E:------------------|--------------------------------|----------------
---|

(F#) (Fret noise)
e:-------------------------|-------------------|
B:-------------------------|-----------3-------|
G:---------------------*---|-x-3-3-3-3---3-3~--|
D:---------------------*---|-------------------|
A:-(9)~-(9)~\--------------|-------------------|
E:------------2~--2~-------|-------------------|

(C)
e:-----------------------------------------------------------------|
B:----------------------8h11p8----8-11-11b12b13b14b15~-11-------[5]|
G:[7]-7-8h10p8---8h10p8--------10----------------------------------|
D:-------------0---------------------------------------------------|
A:---------------------------------------------------------x\--x/--|
E:---------------------------------------------------------x\--x/--|

(F#) (C)
e:------------------------|-------------------------------|
B:-5-5b8---------7--------|------11-----------------------|
G:------------------------|---------11b14~~~~r11---8b9----|
D:-------4-4~-4----4-4-4~-|-------------------------------|
A:------------------------|-------------------------------|
E:------------------------|-------------------------------|

(F#)
e:-----------------------|----------------------|
B:---11-10-8----8--------|----------------------|
G:-x---------10---10-8-8-|-8-----11-11-11----11-|
D:-----------------------|----------------11----|
A:-----------------------|---9~-----------------|
E:-----------------------|----------------------|

(C)
e:--------------------------|-----------------|----------------------|
B:----------11~s18----------|-----------------|----------------------|
G:-11----11-----------------|-------------7---|--------7-7-----------|
D:----11--------------------|--4s5-3-7-5----9-|-10-9-x-----10-9-7----|
A:----------------------x\--|-----------------|-------------------9~-|
E:----------------------x\--|-----------------|----------------------|

(F#) (C)
e:------------------|----------------|---------------------|
B:------------------|----------11----|---------------------|
G:------------11----|-9~-----9-------|---------------------|
D:---------11----11-|-----11-------5-|-5-3-7-6-7-5-7-9-9-7-|
A:------------------|----------------|---------------------|
E:-------0----------|----------------|---------------------|

(F#)
e:--------------------------|---------------|----------------|
B:--------------------------|---------------|-------2~~------|
G:---------7----------------|---------------|-----3----------|
D:-10-9-10---10-9-7---7-9-7-|---------------|-4--------------|
A:------------------9-------|-9~------------|---4------------|
E:--------------------------|------x-9~-2-2-|----------------|

[End Guitar Solo 2]

(A5) (G) (A)
e:------------|------------|----------|-----|
B:------------|------------|----------|-----|
G:------------|------------|--6-------|-----|
D:-7----------|--5---------|------7---|-----|
A:-----7------|------5-----|----------|-7---|
E:---------5--|----------3-|----------|-----|

(A) (G) (A) D E B (A) (G) (A) D E G
e:---------------------|-2---0-------|--------------------|-2---0-----
---|
B:---------------------|-3---0---4---|--------------------|-3---0---0-
---|
G:o-------------6------|-2---1---4---|-------------6------|-2---1---0-
--o|
D:o-7-----5-------7----|-0---2---4---|-7-----5-------7----|-0---2---0-
--o|
A:----7-----5-------7\-|-----2---2---|---7-----5-------7\-|-----2---2-
---|
E:------5-----5--------|-----0-------|-----5-----5--------|-----0---3-
---|

A
e:-------------|-0--0-0--0-0--0-0--0-|------------------------|
B:-0---0---0---|-2--2-2--2-2--2-2--2-|------------------------|
G:-0---0---0---|-2--2-2--2-2--2-2--2-|o----------------------o|
D:-0---0---0---|-2--2-2--2-2--2-2--2-|o----------------------o|
A:-2---2---2---|-0--0-0--0-0--0-0--0-|-----7-6----5~--3-0--2--|
E:-3---3---3---|---------------------|--5-------5-------------|

e:----------------------|---------------------|--------------------|
B:----------------------|---------------------|--------------------|
G:----------------------|---------------------|o------------------o|
D:----------------------|---------------------|o------------------o|
A:----7-6----5~--3-0--2-|-6h7p6p5\3---3-------|----7-6--5p3---3-2--|
E:-5-------5------------|-----------5----5\---|--5----------5------|

e:--------------------|---------------------|
B:--------------------|---------------------|
G:--------------------|---------------------|
D:--------------------|---------------------|
A:----7-6--5p3---3-2--|-6h7p6p5\3---3-------|
E:--5----------5------|-----------5----5\---|

e:-------------------|-----------------|-------------------|----------
-------|
B:-------------------|-----------------|-------------------|----------
-------|
G:---9-8-7p5---5-7b9~|---9-8-7p5---5-4~|---9-8-7p5---5-7b9~|-
8b9r8s7p5---5---|
D:-7---------7-------|-7---------7-----|-7---------7-------|----------
-7---7\|
A:-------------------|-----------------|-------------------|----------
-------|
E:-------------------|-----------------|-------------------|----------
-------|

C
e:------------------------|
B:--5--5--5--5p3----------|
G:o-5--5--5------5p3-----o|
D:o-5--5--5----------5p0-o|
A:--3--3--3---------------|
E:------------------------|

A A D E D
e:-----------------------|-------------|----------|-------------------
----|
B:--2--2--2-2p0----------|--2---2--2-2-|-7--9--7\-|--2--2--2-2p0------
----|
G:o-2--2--2-----2p0-----o|--2---2--2-2-|-7--9--7\-|o-2--2--2-----2p0--
---o|
D:o-2--2--2---------2p0-o|--2---2--2-2-|-7--9--7\-|o-2--2--2---------
2p0-o|
A:--0--0--0--------------|--0---0--0-0-|-5--7--5\-|--0--0--0----------
----|
E:-----------------------|-------------|----------|-------------------
----|

A D E D
e:-------------|----------|-----------------------|
B:--2---2--2-2-|-7--9--7\-|--2--2--2-2p0----------|
G:--2---2--2-2-|-7--9--7\-|o-2--2--2-----2p0-----o|
D:--2---2--2-2-|-7--9--7\-|o-2--2--2---------2p0-o|
A:--0---0--0-0-|-5--7--5\-|--0--0--0--------------|
E:-------------|----------|-----------------------|

C F#
e:---------------------|---------------|--------------|--------------|
B:---------------------|---------------|--------------|--------------|
G:---------------------|------7--------|--------11----|-----------11-|
D:-3s5--3-5s7--5--9--7-|-10-9---10-9-7-|-----11----11-|--------11----|
A:---------------------|---------------|-9~-----------|-9~---9-------|
E:---------------------|---------------|--------------|----9---------|

C F#
e:---------------------|---------------|--------------|--------------|
B:---------------------|---------------|--------------|--------------|
G:---------------------|------7--------|--------------|--------------|
D:-3s5--3-5s7--5--9--7-|-10-9---10-9-7-|--------------|--------------|
A:---------------------|---------------|-9~-----------|------9-------|
E:---------------------|---------------|----9~~s2~----|--9~~---9\----|

A D E D
e:-----------------------|-----------------------|-------------|------
----|
B:--2--2--2-2p0----------|--2--2--2-2p0----------|--2---2--2-2-|-7--9-
-7\-|
G:o-2--2--2-----2p0-----o|o-2--2--2-----2p0-----o|--2---2--2-2-|-7--9-
-7\-|
D:o-2--2--2---------2p0-o|o-2--2--2---------2p0-o|--2---2--2-2-|-7--9-
-7\-|
A:--0--0--0--------------|--0--0--0--------------|--0---0--0-0-|-5--7-
-5\-|
E:-----------------------|-----------------------|-------------|------
----|

A D E D
e:-----------------------|-------------|----------|-------------------
----|
B:--2--2--2-2p0----------|--2---2--2-2-|-7--9--7\-|--2--2--2-2p0------
----|
G:o-2--2--2-----2p0-----o|--2---2--2-2-|-7--9--7\-|o-2--2--2-----2p0--
---o|
D:o-2--2--2---------2p0-o|--2---2--2-2-|-7--9--7\-|o-2--2--2---------
2p0-o|
A:--0--0--0--------------|--0---0--0-0-|-5--7--5\-|--0--0--0----------
----|
E:-----------------------|-------------|----------|-------------------
----|

C F#
e:---------------------|---------------|--------------|--------------|
B:---------------------|---------------|--------------|--------------|
G:---------------------|------7--------|--------11----|-----------11-|
D:-3s5--3-5s7--5--9--7-|-10-9---10-9-7-|-----11----11-|--------11----|
A:---------------------|---------------|-9~-----------|-9~---9-------|
E:---------------------|---------------|--------------|----9---------|

C F#
e:---------------------|---------------|------------------------|
B:---------------------|---------------|--2--2--2---------------|
G:---------------------|------7--------|o-3--3--3--4p2---------o|
D:-3s5--3-5s7--5--9--7-|-10-9---10-9-7-|o-4--4--4------4p2-----o|
A:---------------------|---------------|--4--4--4----------4p0--|
E:---------------------|---------------|--2--2--2---------------|

e:--------------------|--------------------|--------------------|
B:--------------------|--------------------|--------------------|
G:o------------------o|--------------------|--------------------|
D:o------------------o|--------------------|--------------------|
A:----7-6----5p3---3--|----7-6----5p3---3--|----7-6----5p3---3/-|
E:--5------------5----|--5------------5----|--5------------5----|

A Ab G F# F E Eb D C# C B Bb A C
e:---------------------|----------------|----------|----------|
B:-14--13--12--11-10-9-|-8--7--6--5-4-3-|-2--------|-5--------|
G:-14--13--12--11-10-9-|-8--7--6--5-4-3-|-2--------|-5--------|
D:-14--13--12--11-10-9-|-8--7--6--5-4-3-|-2--------|-5--------|
A:-12--11--10--9--8--7-|-6--5--4--3-2-1-|-0--------|-3--------|
E:---------------------|----------------|----------|-3--------|


Rush - Lakeside Park

Rush - Lakeside Park

From the CD 'Caress of Steel'
Written by Lee/Lifeson/Peart
Mercury/Polygram Records 822543-2

Thanks to WaveStudio, I was able to slow the song down and tab the
solo right. Now it's definitely correct. Thanks to Rich Soto
<lerxst@protected.olga.net> for some corrections.

Jimmy Pena - jimmy@protected.olga.net

| = not a standard bar line; just used to separate music
~ = vibrato or held note
h = hammer on
p = pull off
s = slide
tr = trill; play the note(s) indicated rapidly and repeatedly (same
thing
as tremolo picking)
\ = slide down into infinity
o \_
o / repeat sign (always look for these!)


[Riff 1]
A5 G D C G A G Gsus4
e:-5--3-3--3-2------------|--5--3-3--3-2---7-8\-------------|
B:-5----3--3-3---3--3--2--|--5----3--3-3---8-8\--2----------|
G:-2----0----2---0--0--2--|--2----0----2---7-7\--2----------|
D:------0----0---x--0--2--|-------0----0---------2----------|
A:---------------3--x--0--|----------------------0----------|
E:------------------3-----|---------------------------------|

[Riff 2] - with phaser _________________________
Dm7 G C |1. |2.
e:---5--5~--5--5--5--6p5----|---3--3-3----0--|------------|-----------
|
B:---6------6------------6--|---3--3-3----1--|------------|-----------
|
G:o--5------5---------------|---0--0-0----0--|--0h2-0-0--o|---0tr7----
|
D:o--0------0---------------|---0--0-0----2--|-----------o|-----------
|
A:--------------------------|-------------3--|------------|-----------
|
E:--------------------------|----------------|------------|-----------
|

[Riff 3] - with phaser
Fmaj7 Cmaj7 phaser
off
e:---------------------------------------|----------------------------
-|
B:---------------------------------------|--------------------------
2~-|
G:----2~----2~----2~-------0~----0~---0~-|----2~----2~----2~-----0--
2~-|
D:-3~----3~-------------2~----2~---------|-3~----3~-----------2~----
2~-|
A:---------------------------------------|--------------------------
0~-|
E:---------------------------------------|----------------------------
-|

[Riff 4] - Slow (with phaser)
D C9 C Cmaj7 Csus2 Cmaj7
e:--5-5-5-5-7----3-3-3--3-------|---------------------------2~-|
B:--7---7---7----3---1----0-----|-----3-----3---------------3~-|
G:--7---7--------0---0----0-----|---5-----4----2-0----------2~-|
D:--0---0--------2---2----2-----|-5-----5----------4----2---0~-|
A:------------------------------|---------------------3---0----|
E:------------------------------|------------------------------|

Progression:

[Riff 1] x2

[Riff 1] x4 /w lyrics:

Midway hawkers calling, "Try ....

[Riff 2] x2 /w lyrics:

Lakeside Park, willows in ....

[Riff 3] x1

[Riff 1] x2

[Riff 1] x4 /w lyrics:

Days of barefoot freedom, ....

[Guitar Solo] over [Riff 1] x4

e:--------------------------------------------------------12---------|
B:----------------------------7-8-10-------12-14-15-14-15------------|
G:---------------------6-7-9---------6~----------------------14------|
D:--7p5s2---------7-7------------------------------------------------|
A:---------4~--------------------------------------------------------|
E:-------------------------------------------------------------------|

e:-------------------------------------------------|-----------------|
B:-------------------------------------------------|-----------------|
G:-12-11-12--14--12p11-----11----------------------|-14-12p11--------|
D:---------------------14-----14p12--11-12-12s14~--|----------14-----|
A:-------------------------------------------------|-----------------|
E:-------------------------------------------------|-----------------|

e:-------------------------------------------------------------------|
B:-12-----------12---------------------------------------------------|
G:----14-12p11-----14-12p11-----9s6.-----6p4p0-4-6~-4h6p4-0----------|
D:------------14------------14---------------------------------------|
A:-------------------------------------------------------------------|
E:-------------------------------------------------------------------|

e:------------------------------------------------------------12--15-|
B:------------13-15-15b17r15p13----13-15--15b17r15b17~~-15b17--------|
G:-14-14~--14-------------------14-----------------------------------|
D:-------------------------------------------------------------------|
A:-------------------------------------------------------------------|
E:-------------------------------------------------------------------|

e:-15b17-15-15b17-15b17~~\-------------------------------------------|
B:-------------------------------------------------------------------|
G:-------------------------------------------------------------------|
D:-------------------------------------------------------------------|
A:-------------------------------------------------------------------|
E:-------------------------------------------------------------------|

[Riff 2] x2 /w lyrics:

Lakeside Park, willows.....

[Riff 4] x2

[Riff 4] x2 /w lyrics:

Everyone would gather on the 24th ....

Riff 4] x3

Last half of [Riff 4] x3 with this riff:

e:-------------------------------|
B:-------------------------------|
G:--5~--4~---2-0-----------------|
D:---------------4----2----0~----|
A:------------------3---0--------|
E:-------------------------------|

Final cadence:

e:--<12>~~~--------------------------|
B:-----------<7>~~~------------------|
G:---------------------<7>~~~--------|
D:-----------------------------------|
A:-----------------------------------|
E:-----------------------------------|


Leave That Thing Alone


Leave That Thing Alone, off of _Counterparts_
Transcribed by Tony Zimmermann <anthonyz@protected.olga.net>


----------------------------------------------------------------------
----------------------------------------------------------------------
---14-H-16--16--16--16-P-14--14--14--14-------------------------------
---14-------14--14--14---14--14--14--14-------------------------------
--(0)-----------------------------------------------------------------
----------------------------------------------------------------------

----12----------------------------------------------------------------
--------10--12--------------------------------------------------------
----------------12--10--9-----9--10-----------------------------------
-----------------------------------------10---------------------------
------------------------------------/12-------------------------------
----------------------------------------------------------------------

----12----------------------------------------------------------------
--------10--12--------------------------------------------------------
----------------12--10--9---------------------------------------------
----------------------------12--10------------------------------------
----------------------------------------------------------------------
----------------------------------------------------------------------

----------------------------------------------------------------------
----------------------------------------------------------------------
----------------------------------------------------------------------
----------------------------------------------------------------------
---0--0---3--3--5---5-5--7---7-7--------------------------------------
----------------------------------2--2-2--3--3----(4x)----5\----------

-------------------------------|--------------------------------------
-------------------------------|--------------------------------------
-------------------------------|--------------------------------------
------------2-P-0-----2-H-3----|--------------------------------------
---0--2--3---------3-----------|-----------2-P-0-----2-H-3------------
-------------------------------|--0--2--3---------3-------------------

-------------------------------7---------------7----------------------
---------7--10-------------------------7---10--------7--7-H-10-P-7----
--------------------7--9----7---------------------9----------------7--
--7--9-----------9------------------9--------------------------------9
----------------------------------------------------------------------
----------------------------------------------------------------------

-----------------------------------------------7----------------------
---------------------7------------------7-H-10---7--10--12--14-12-----
---------------------------9--7-----7-----------------------------14--
--(9)--7---7---7-H-9----9--------9------------------------------------
---------9------------------------------------------------------------
----------------------------------------------------------------------

--12------12----15------17--19--17-tr-19---21--19--21--22--21-(22)----
------15-----15-----17------------------------------------------F-----
----------------------------------------------------------------------
----------------------------------------------------------------------
----------------------------------------------------------------------
----------------------------------------------------------------------

--22--(24)--24--22--24-----22--24--22----(24)--24--22--24--22--24-----
--------F----------------------------------F--------------------------
----------------------------------------------------------------------
----------------------------------------------------------------------
----------------------------------------------------------------------
----------------------------------------------------------------------


Rush – Lessons

Rush - Lessons

From the CD '2112'
Written by Lee/Lifeson/Peart
Mercury/Polygram Records 822545-2

This song is in the key of A. It switches to E for the chorus.
The solo is incomplete and may have some mistakes in it.

Jimmy Pena - jimmy@protected.olga.net

| = not a standard bar line; just used to separate music
~ = vibrato or held note
h = hammer on
p = pull off
s = slide
b = bend string up to indicated pitch/fret
r = release bend to indicated string/fret
/ = slide up from infinity
\ = slide down into infinity
[5] = artificial harmonic (use thumb to follow through the pick
attack)
o \_
o / repeat sign (always look for these!)

[Riff 1] - Freely

A D Dsus2 G D
e:----------2--2--0-----0-0--3~---3-3----7---5----2------------------|
B:--2--2-2--3--3--3-----3-3--3~---3-3----8---7----3------------------|
G:--2--2-2--2--2--2-----2-2--0~---0-0----7---7----2------------------|
D:--2--2-2--0--0--0-----0-0--0~---0-0-------------0------------------|
A:--0--0-0-------------------2~---2-2--------------------------------|
E:---------------------------3~---3-3--------------------------------|
A D Dsus2 G
e:----------2--2--0----3---2---3---2---------------------------------|
B:--2--2-2--3--3--3----3---3---3---3---------------------------------|
G:--2--2-2--2--2--2----0---2---0---2---------------------------------|
D:--2--2-2--0--0--0----0---0---0---0---------------------------------|
A:--0--0-0-------------2-------2-------------------------------------|
E:---------------------3-------3-------------------------------------|

[Riff 2]

________________________________
E5 A B E D |1. A |2. A G
e:-------------------------------------|---------|--------------------
-|
B:------------------2--4----9-----7~---|---------|--------------------
-|
G:o-----------------2--4----9-----7~---|--------o|--------------------
-|
D:o-2-2-2-2-2-2-----2--4----9-----7~---|----7---o|----7---5-----------
-|
A:--2-2-2-2-2-2-----0--2----7-----5~---|----7----|----7---5-----------
-|
E:--0-0-0-0-0-0------------------------|----5----|----5---3-----------
-|

[Riff 3]
G5 A5 G5 E5 A5 G5 G5 A5 G5 E5 A5 B5
e:-----------------------------------|-------------------------------|
B:-----------------------------------|-------------------------------|
G:-----------------------------------|-------------------------------|
D:--5--5---7--7---5--5---2---7-------|-5--5--7--7--5--5--2---7---9---|
A:--5--5---7--7---5--5---2---7-------|-5--5--7--7--5--5--2---7---9---|
E:--3--3---5--5---3--3---0---5--3~--0|-3--3--5--5--3--3--0---5---7---|

[Riff 4]
G5 A5 G5 E5 A5 G5 G5 A5 G5 E5 A5 D5
e:----------------------------------|--------------------------------|
B:----------------------------------|----------------------------3---|
G:----------------------------------|------------------------2---2---|
D:--5--5--7--7--5--5--2---7---------|--5--5--7--7--5--5--2---2---0---|
A:--5--5--7--7--5--5--2---7---------|--5--5--7--7--5--5--2---0-------|
E:--3--3--5--5--3--3--0---5---3~--0-|--3--3--5--5--3--3--0-----------|

[Fill 1]
e:-----------------------15------------------------------------------|
B:-15b17~~17--15--15b17-----15-15b17r16b17~~-----15p12----12---------|
G:-----------------------------------------------------14----14b16---|
D:-------------------------------------------------------------------|
A:-------------------------------------------------------------------|
E:-------------------------------------------------------------------|

e:--------------------------------5-5-----------10p7-----------------|
B:--12--------------8p5----5---8------8--5~~---------10--10b12r10b12-|
G:-----14b16~~~---------7--------------------------------------------|
D:-------------------------------------------------------------------|
A:-------------------------------------------------------------------|
E:-------------------------------------------------------------------|

[Fill 2]
e:-[12]--------------------------------------------------------------|
B:-------------------------------------------------------------------|
G:-------14b16r14b16~~---14b16~~16r14p12--14--14b16r14p12~-----------|
D:----------------------------------------------------------14~~\----|
A:-------------------------------------------------------------------|
E:-------------------------------------------------------------------|

e:-----------------------15------------15----------------------------|
B:--15b17~~17-15--15b17-----15-15b17~~~~~~~-15b17---15p12----12------|
G:--------------------------------------------------------14---------|
D:-------------------------------------------------------------------|
A:-------------------------------------------------------------------|
E:-------------------------------------------------------------------|

e:--------------|
B:-------15-----|
G:-14b16~~~~----|
D:--------------|
A:--------------|
E:--------------|


Progression:

[Riff 1] x4

[Riff 1] x4 /w lyrics:

Sweet memories, flashing very ....

[Riff 2] x2 /w lyrics:

You know we've told you before....
[Fill 1] x1 and [Riff 3] x1 /w lyrics:

You didn't listen ...

[Riff 4] x1

[Riff 1] x4 /w lyrics:

Sweet memories, I never thought .....

[Riff 2] x2 /w lyrics:

You know we've told you before, ....

[Fill 2] x1 and [Riff 3] x1 /w lyrics:

No!

[Riff 4] x1

Woah. You didn't ...

[Guitar Solo] over [Riff 1] until fadeout

e:-------------------------------------------------------------------|
B:---------17--------17--------------------------13b15--13b15~~~-----|
G:--16b18~~~~~~r16-------16b18r16p14--16b18~~~-----------------------|
D:-------------------------------------------------------------------|
A:-------------------------------------------------------------------|
E:-------------------------------------------------------------------|

e:-------------------------------------------------------------------|
B:--13b15r13--10-----------------------------------------------------|
G:----------------12b14r12--11~~~----4b6~~~r4~--4b6r4~---4b6r4--2----|
D:-------------------------------------------------------------------|
A:-------------------------------------------------------------------|
E:-------------------------------------------------------------------|

e:-------------------------------------------------------------------|
B:-------------------------------------------------------------------|
G:----4p2----[2]~------2----------------------------------------2h4--|
D:---------4-------2h4---4p2----2------------------------------------|
A:---------------------------4----4-2--------------------------------|
E:------------------------------------2h3p2-2h3p2-2h3p2-0-2h3~~------|

e:-------------------------------------------------------------------|
B:-------------------------------------------------------------------|
G:---9b11--9-9-9-----------------------------------------------------|
D:-------------------------------------------------------------------|
A:-------------------------------------------------------------------|
E:-------------------------------------------------------------------|

(ad infinitum!) Anyone?





Limelight


Guitar tabs for : Limelight

Transcription by: Joe Kung (jtkung@protected.olga.net)
Patrick Ryan

The solo is a blatant infringement of copyright, for it has been
reproduced
without permission by Frank Schaapherder
(schaaphe@protected.olga.net). It originally
appeared in Guitar, May 85.

Intro:
------

|----------------------|
|----------------------|
|-----------4---4---2--|
|---------2-4---4---2--|
|-----0-4---2---2---0--|
|-0-4-------------4----|
[repeat 3 times, with different phrasings]


Transition from intro:
|-----------|
|-----------|
|-----------|
|---------2-|
|-----0-4---|
|-0-4-------|


B A E [no 3rd]
|------------------------|
|------------------------|
|-4-4-2-2----------------|
|-4-4-2-2--2-------------|
|-2-2-0-0--2------0-4-0--|
|----------0--2-4--------|
[six times]


Verse:
------

------0---0------------------0--------------0-------0----------------
----------0------------------0------------0-0------------------------
----4---4--------------------4------------4-------4---------6-6------
--4---------6--6--4-4--4--2-----4-4-2---2-------4-----4---6-4-4-4-4--
2-----------6--6--4-4--4--2-----4-4-2---2-----2---------6-6-6-6-4-4--
------------4--4--2-2--2--0-----2-2-0---0-----------------4-4-4-2-2--


Riff between verses:
|------------------------|
|------------------------|
|----4-----2-------------|
|--4-----2---2-----------|
|2-----0-----2-----0-4-0-|
|------------0-2-4-------|
[repeat two times]


Chorus:
-------
measure 3/4
Chorus arpeggiation:
|----------------------------------|-----------|
|-------0----------0----------0----|-------0---|
|---------6----------3-------------|---------6-|
|-----4----------2----------4------|-----4-----|
|---6----------2----------4--------|---6-------|
|-4----------0----------2----------|-4---------|
[repeat twice]

Then the straight rhythm ("Those who wish to be..")
measure 4/4:

---------------------------------------------------------------------
---------------------------------------------------------------------
---------------------------------------------------------------------
2-2-2-2-2-2-2-2-4-4-4-4-4-4-4-4-6-6-6-6-6-6-6-6----------------------
2-2-2-2-2-2-2-2-4-4-4-4-4-4-4-4-6-6-6-6-6-6-6-6----------------------
0-0-0-0-0-0-0-0-2-2-2-2-2-2-2-2-4-4-4-4-4-4-4-4----------------------

----0-------0-------0---------0-------4-----4------------------------
----0-------0-------0---------0-------4-----4------------------------
----1-------1-------3---------3-------6-----6------------------------
2-2-2-2-2-2-2-2-4-4-4-4-4-4-4-4-4-6-6-6-6-6-6-6----------------------
2-2-2-2-2-2-2-2-4-4-4-4-4-4-4-4-4-6-6-6-6-6-6-6----------------------
0-0-0-0-0-0-0-0-2-2-2-2-2-2-2-2-2-4-4-4-4-4-4-4----------------------

Fill up one measure with E and one with F#7add4 in 4/4 rhytm,
go back once to the arpeggio. Then do the second riff of the intro
twice and
go back to the verses etc. etc.

Solo:
-----

Right before the solo in the chorus, instead of returning to the
chorus
arpeggiations, play the G# sus 4 for one more measure, then go ahead
with:

-_-------------------------------------------------------------------
2-0-!-12->-(9)-------------------------------------------------------
-----------------------------------------X-11------------------------
---------------------------------------------------------------------
------------4--4->-6->-2->-4->-2->-----------------------------------
-----------------------------------2->-4-----------------------------
NH

---12->-14--------14-----------11-------14-------11-------14---------
12------------12-----11-14--------12-11----11-12----12-11------------
-----------11--------------13----------------------------------------
---------------------------------------------------------------------
---------------------------------------------------------------------
---------------------------------------------------------------------

------11-------------------------------------------------------------
11-12----14----11--------_--_--_-------------------------------------
------------13----11---11-13-11-13->-1-------------------------------
---------------------------------------------------------------------
---------------------------------------------------------------------
---------------------------------------------------------------------

_ _
16->-(19)!--14-16->-(18)-!->-16-14-16-18-16--16-18-16--18-19-16------
---------------------------------------------------------------------
---------------------------------------------------------------------
---------------------------------------------------------------------
---------------------------------------------------------------------
---------------------------------------------------------------------

18-19-18--19-21-21->-(23)-!------------------------------------------
---------------------------------------------------------------------
---------------------------------------------------------------------
---------------------------------------------------------------------
---------------------------------------------------------------------
---------------------------------------------------------------------

Hold the last note almost indefinately. A little (or actually, a bit
more)
feedback wouldn't hurt. It's the incredibly long magic note.

After the solo, play the chorus arpeggiation once more, and get back
into the
chorus. The final chord of the song is the G#sus4 again.

--
Legend:

| - A pair of these indicate a part of music, not the usuals bars.
: - Indicates that a part is to be repeated. This may be ommited, you
should
hear it too.
_ - Indicates a hammer-on or pull-off (You should know which is
appropriate)
> - Indicates a bend-up or down or a slide. With a bend, the note to
bend to
is between '(' and ')'. Use the whammy for a downbend. With a
slide, the
follow-up note is the one to be slid to.
! - Indicates vibrato.
^ - Indicates a tapped harmonic. Is printed below the note.
. - Under the strings, it indicates the note is staccato (short).
\ - Indicates a general slide downwards from note, to no note in
particular.
AH - Indicates adding artificial harmonic with pick hand.
NH - Natural harmonic.

Losing It

This is my first version of a transcription of 'Losing It,' the
seventh
track of 'Signals' by Rush.
I have begun this transcription by arranging the first keyboard
part
for guitar.

Rhythm 1 (keyboard arr. for guitar):
|---------------------------------|-----------------------------------
----|
|---------------------------------|-----------------------------------
----|
|---3---6---3---6---3---6---3---3-|-----3-----------------------------
----|
|--4---6---4---6---4---6---4-6-4--|----4----6---6---1---4---3---1---4-
--3-|
|-6-------6-------6-------6--64---|-6-4----6---6---2-------4---2------
-4--|
|---------------------------------|-----------------------------------
----|



Madrigal


Madrigal"
by Rush
from A FAREWELL TO KINGS

Transcription by Paul Bryant (pbryant@protected.olga.net)

Song is in 4/4

LEGEND: ^ means string bend


Intro: Synthesiser and Guitar. YOU figure out what effects
will make your guitar sound like the mighty Mini Moog!

|-12---------|------------|---------|-------------------|
|-----12--14-|------------|---------|-------------------|
|------------|-14--11--13-|---------|-------------------|
|------------|------------|-14------|-11----------------|
|------------|------------|---------|----14-12----------|
|------------|------------|---------|-----------14-12---|
| | | | |
|-0----------|-2----------|-0-------|-2-----------------|
|-0----------|-3----------|-0-------|-3-----------------|
|-1----------|-2----------|-1-------|-2-----------------|
|-2----------|-0----------|-2-------|-0-----------------|
|-2----------|------------|-2-------|-------------------|
|-0----------|------------|-0-------|-------------------|


|-12---------|------------|---------|-------------------|
|-----12--14-|------------|---------|-------------------|
|------------|-14--11--13-|---------|-------------------|
|------------|------------|-14------|-11----------------|
|------------|------------|---------|----14-12----------|
|------------|------------|---------|-------------------|
| | | | |
|-0----------|-2----------|-0-------|-2-----------------|
|-0----------|-3----------|-0-------|-3-----------------|
|-1----------|-2----------|-1-------|-2-----------------|
|-2----------|-0----------|-2-------|-0-----------------|
|-2----------|------------|-2-------|-------------------|
|-0----------|------------|-0-------|-------------------|


|----------------------------22^-| * See note 5 below
|--------------------------------|
|-11------14----11------14-------|
|-----14------------14-----------|
|--------------------------------|
|--------------------------------|
| |
|--2---0---------2-2-0-----------|
|--3-------3-2-0-3------3-2-0----|
|--2-------------2---------------|
|--0-------------0---------------|
|--------------------------------|
|--------------------------------|

"When the dragons ...

Figure A:
|--0-------0----0-0---|-2------2------|
|--2-------2----0-2---|-3--------3----|
|--1-------2----1-2---|-2----2-----2--|
|--2-------2----2-2---|-0--4----------|
|--2-------0----2-0---|---------------|
|--0-------0----0-0---|---------------|

"slay with pen or ...
Repeat Figure A

"weary of the ....
Repeat Figure A

"storm I walk to - ward...

|-0-------0----0-0---|-4-------4------|
|-2-------2----0-2---|-5---------5----|
|-1-------2----1-2---|-6-----6-----6--|
|-2-------2----2-2---|-6---6----------|
|-2-------0----2-0---|-4--------------|
|-0-------0----0-0---|----------------|

"all a-round is mad - ...
*
|-3----3-2---0---------|-----2-0-----------| * I don't know if this
chord
|(0)------------3------|-----------3-2--0--| is really there. It
sounds
|(0)-------------------|---2---------------| something like the
chimes
|(2)---------------2---|-0-----------------| so you may want to
play it
|(2)-------------------|-------------------| if you have no
chimes.
|(0)-------------------|-------------------|

"no safe port in ....

|----------------------|-------2----------|
|---------2------------|-----------3------|
|------3-----3---------|-----4-------4----|
|----2----------2------|---4--------------|
|-4----------------4---|-2----------------|
|----------------------|------------------|

"long to turn my path home-...
*
|-3----3-2---0---------|-----2-0-----------|
|---------------3------|-----------3-2--0--|
|----------------------|---2---------------|
|------------------2---|-0-----------------|
|----------------------|-------------------|
|----------------------|-------------------|

"a while ...

|----------------------|------0-----------|--(0)----------|
|---------2----------2-|-0----0-----------|--(0)----------|
|------3-------3-------|-2----1-----------|--(1)----------|
|----2------------2----|-2----2-----------|--(2)----------|
|-4--------------------|-2----2-----------|--(2)----------|
|----------------------|------------------|---------------|

**********************************************************************
**
The rest of the song is the same as above, with minor picking
variations
**********************************************************************
**

Notes: 1) Use a light chorus or flanger, if possible.
2) Keep the picking as simple as possible -
don't play too many notes!
3) Some of the picking above was arbitrarily chosen
since it is difficult to hear every note on the record.
4) The synthesizer is transcribed (at least) one octave lower
than on the record.
5) That piercing last synthesizer note can be simulated by
playing
an artificial harmonic on the 9th fret of the G string,
picking
directly above the middle pickup (on my guitar anyway).


Making Memories


Making Memories
Fly By Night
Music and Lyrics by Lee, Lifeson, and Peart

Transcribed by Tony Zimmermann, <97445@protected.olga.net>
comments welcome

Acoustic 6-string (12-string recommended)
Verses:
---2--------5--------0-------------2--------5--------0----------------
---3--------6--------3-------------3--------6--------3----------------
---2---//---5---//---0---//---//---2---//---5---//---0---//---//------
---0--------0--------2-------------0--------0--------2----------------
---------------------3-------------------------------3----------------
----------------------------------------------------------------------
D F/D Cadd9 D F/D Cadd9

Bridge:
---7-------------2-------------7-------------2------------------------
---8-------------3-------------8-------------3------------------------
---7---//---//---2---//---//---7---//---//---2---//---//--------------
---0-------------0-------------0-------------0------------------------
----------------------------------------------------------------------
----------------------------------------------------------------------
G/D D G/D D

---7-------------2-------------5------------12------------------------
---8-------------3-------------6------------13------------------------
---7---//---//---2---//---//---5---//---//--12---//---//--------------
---0-------------0-------------0-------------0------------------------
----------------------------------------------------------------------
----------------------------------------------------------------------
G/D D F/D C/D

Slide Solo:
----------------------------------------------------------------------
--------12----12-\-10-/-12-\-10-/-12-\-10----10-\-------(7)-----------
---------------------------------------------------7----(7)-----------
---/12--------------------------------------------------(7)-----------
----------------------------------------------------------------------
----------------------------------------------------------------------

---/15---15-\-14-/-15-\-14-/-15-\-14-------/-17-----------------------
-------------------------------------/-15-----------------------------
----------------------------------------------------------------------
----------------------------------------------------------------------
----------------------------------------------------------------------
----------------------------------------------------------------------

----------------------------------------------------------------------
---------12---/-15---\-12------------------------tr./\/\/\/\/-----10--
---------------------------12--\--7---------7----10-\-9-/-10-\-9------
---/-12--------------------------------/-7----------------------------
----------------------------------------------------------------------
----------------------------------------------------------------------

----------------------------------------------------------------------
---tr./\/\/\/\/\/---------------------5----------------/-13-\-12---15-
---5-\-4-/-5-\-4-/-5-\-4-/-5-\-4-/-5--------/-7--------tr./\/\/\/-----
---------------------------------------------------/------------------
----------------------------------------------------------------------
----------------------------------------------------------------------

----------------------------------------------------------------------
----------------------------------------------------------------------
---/-10-\-7----7-\-5-/-7-\-5-/-10-----10-\-9-/-10--10-\-7-------------
----------------------------------------------------------0-/-7-/-12-/
----------------------------------------------------------------------
----------------------------------------------------------------------

Outro:
------------------------------------------7--10----------------10--12-
-----------------------------------7--10---------------10--12---------
-------------------------7--9--10-------------------11----------------
-------------------7--9-----------------------------------------------
----------7--8--9-----------------------------------------------------
---7--10--------------------------------------------------------------
Vamp over D Blues, include Alex's favorite Fly by Night Lead



MARATHON


MARATHON
from 'Power Windows'

transcribed by dlinklater@protected.olga.net [Derek Linklater]

Note: I did not transcribe the solo for Marathon, I'll leave that
to you die-hard rush fans. Please feel free to mail any
comments
to me regarding this transcription... especially if one of you
enterprising Lifeson fans wants to transcribe the solo
correctly. :)

The 'Alex Lifeson' Sound: I have managed to re-create (sort of) the
sound
that Alex uses on Marathon. Use a ballsey
heavy
distortion, chorus (using a triangle wave-
form if
you can), and either a bit of delay or
reverb to
get that 'studio' sound.

Lyrics not reprinted with permission... sorry guys. :(


Intro Riff:
B A B A
------------------------5vvv-|---------------------5vvv---2-----2----
---------------5vvv---4------|------------5vvv----4-------4--2--4--2-
------4vvv-------------------|---4vvv---------------------4--2--4--2-
---4---------2------2--------|--4--------2-------2--------4--2--4--2-
-2---------0-----------------|-2--------0-----------------2--0--2--0-
-----------------------------|----------------------------2-----2----


Verse:

B A
------2----------------------------------------------------
------4----------------------------2-----------------------
------4----------------------------2-----------------------
------4----------------------------2-----------------------
------2----------------------------0-----------------------
------2----------------------------------------------------
It's not how fast you can go, the ...

B A
----2---------------------------------------------------------
----4--------------------------------2------------------------
----4--------------------------------2------------------------
----4--------------------------------2------------------------
----2--------------------------------0------------------------
----2---------------------------------------------------------
If you pick up the beat, ....


[play 1st half of intro riff]
More than just ....

B A
------------------2-------------------
------------------4---------2---------
------------------4---------2---------
------------------4---------2---------
------------------2---------0---------
------------------2-------------------
More than just a dash...

[play verse]
It's a test of ...


[play 1st half of intro riff]
More than blind ....


----------------------------------------------------5-2vvv--
------------------------------------------------------------
--------------------4vvv--------------------------4---------
------------------4-----------------------------2-----------
----------------2-------------------------------------------
------------------------------------------------------------
Must feed this burning need...


Chorus #1 & #3:

B E F# E
-7--------------7-----2----------------------------0-----------
-7--------------9-----2----------------------------0-----------
-8--------------9-----3----------------------------1-----------
-9--------------9-----4----------------------------2-----------
-9--------------7-----4----------------------------2-----------
-7--------------7-----2----------------------------0-----------
From first to last, the peak is ....

Abm F#
------------------4------------------------2-------------------
------------------4------------------------2-------------------
------------------4------------------------3-------------------
------------------6------------------------4-------------------
------------------6------------------------4-------------------
------------------4------------------------2-------------------
always fires the light ...

B E F# E
-7-----------7----2--------------------------0------------------
-7-----------9----2--------------------------0------------------
-8-----------9----3--------------------------1------------------
-9-----------9----4--------------------------2------------------
-9-----------7----4--------------------------2------------------
-7-----------7----2--------------------------0------------------
One moment time, and glory ....

E E E E F# F# F#
-----------------0--0-----0--0------------2---2---2-------------
-----------------0--0-----0--0------------2---3---3-------------
-----------------1--1-----1--1------------3---3---4-------------
-----------------2--2-----1--1------------4---4---4-------------
-----------------2--2-----2--2------------4---4---4-------------
-----------------0--0-----0--0------------2---2---2-------------
Lightning, that flashes and ....


[play 1st half of intro riff]
then:
A
--------------
------2-------
------2-------
------2-------
------0-------
--------------

[play verse chords]
Your meters may .....

[play 1st half of intro rif]
More than high ....

A A A A A
--------------------------------------------------5-2vvv-----
------------2----2--2---2--2---------------------------------
------------2----2--2---2--2---------------------4-----------
------------2----2--2---2--2--------------------2------------
------------0----0--0---0--0---------------------------------
-------------------------------------------------------------
or a lucky shot in the ....


[play chorus]


Bridge:

-------------12--17vvv-|-------------------------------|
----------15-----------|-------------------------------|
-------14--------------|-------------------------------|
----12-----------------|-----------4---------4---------|
-----------------------|---5-5-5-7---5-5-5-7-----------|
-----------------------|-----------------------5-------|
<------- Repeat 10 times ------->

Solo: Not Transcribed

Guitar tacet, then:
[play 1st half of bridge riff]

Chorus #2
C# F# Ab
From first ....
The peak is ...
F# Bbm
Something always ...
Ab
That gets in ....
C# F# Ab
One moment ...
And glory ...
F#
Like a streak ....
F# F# F# F# Ab Ab
That flashes and ....


Chorus #3:
[play Chorus #1 chords until finish]



Transcription Notes:

'v' indicates shallow tremelo action... basically vibrato.
'|' indicates a certain section of music... not a traditional musical
measure


Middletown Dreams


Middletown Dreams
by Rush, Power Windows
Mercury Records / Anthem Entertainment

Transcribed by Tony Zimmermann <anthonyz@protected.olga.net>
Comments welcome

Am : x02210
G : 320033
F : 133211
Dm : x57765
Bb : x13331
Csus2: x35533
G/B : x20033


----------------------------------------------8-----------------------
--15-------------------------------15------------10-------------------
--12------------5------0-----------12-------9-------------------------
--14----------------5-----0--------14----12---------------------------
--12------5--7---------------0-----12---------------------------------
----------------------------------------------------------------------


Office door... rake
--------------------5----5--------------------------------------------
---------------------3---3--------------------------------------------
-(2)------0-----------2--2--------------------------------------------
-(2)----0--------------2-2--------------------------------------------
--0---2------3-----------0--------------------------------------------
----------------------------------------------------------------------

But he's still...
----------------------------------------------------------------------
-------1------1-----1---------------0---------------0-----------------
-----0------0-----0-------0-------5---5---5-------5---5---5-----------
---2------2-----2-------0-------5-------5-------5-------5-------------
-0--------------------2-------3---------------3-----------------------
----------------------------------------------------------------------

Another day... Slapback delay
---------------------------------------------------3------------------
-15---------------------------------3---------------------------------
-12-------------------------------5---5---5------5--------------------
-14-----------------------------5-------5------5----------------------
-12---------------------------3--------------3------------------------
----------------------------------------------------------------------

Whoa.....
F Am G F
----------------------------------------------------------------------
----------------------------------------------10-------10-------------
----------------------------------------------------------------------
-----------------------------------------/10------10------------------
----------------------------------------------------------------------
----------------------------------------------------------------------

Dreams flow....
Am, G, F
Am, G, F
Am, G/B, F

....Boy walks..... 1,2 3 4
--5--------------3------3--3----|-------------|------------|----------
--
--8--------------3------x--x----|-------------|------------|----------
--
--5--//-------0--5--//--7--7----|-------------|------------|----------
--
--7---------0----5------5--5----|----5--------|----5-------|-----5-
<7>--
--5-------2------3------3--3----|-/7---5--<7>-|-/7---5-<4>-|--/7---PH-
--
--------------------------------|---------PH--|--------PH--|----------
--

Synth (arr. for guitar)
-----------------|------------------|------------------|--------------
----
----13-----------|-----12-----------|-----10------10---|-----12-------
----
14------14--14---|-12------12--14---|-10------10-------|-12------12--
14---
--14--14--14--14-|---12--12--12--10-|---12--12--12--12-|---14--14--14-
-14-
-----------------|------------------|------------------|--------------
----
-----------------|------------------|------------------|--------------
----

----------------------------------|----------------|-----------|-13---
-------
-10------12------10------12-------|----------------|--12-------|---13-
-------
--9--//--12--//--10--//--12--//---|--/-<12>--------|----12-----|-----
12-H-14-
-10------12------10------12-------|-----PH--/-<12>-|------12---|------
-------
----------------------------------|------------PH--|--------12-|------
-------
----------------------------------|----------------|-----------|------
-------

-(20)-20---17-H-20-P-17----17-----------------------------------------
---F--rel---------------20----17-H-20-(20)----------13--15------------
----------------------------------------F------/14----------14--------
----------------------------------------------------------------------
----------------------------------------------------------------------
----------------------------------------------------------------------

------------------------------------------17-P-15----15---------------
-
--------------------------------------------------17----17-\-15-P-13--
-
-14--12-14-12-14---12--14-12-14-12-14-------------------------------
12-
----------------------------------------------------------------------
-
------------------------------------------Outline C Pentatonic Major--
-
----------------------------------------------------------------------
-

-----12--15------12--(13)---------------------------------------------
-13----------13-------F-----13--15--12--13--12----12--13--(15)--------
-----------------------------------------------14----------F----------
----------------------------------------------------------------------
----------------------------------------------------------------------
----------------------------------------------------------------------

Dm, F, Bb, Csus2, Dm

----------------------------------------------------------------------
-------
---------------------------------------------------------------6-6----
--6----
--------10----10---------10---10-------3---3--------5---5-------------
-------
--10--10----10-----10--10---10----------------------------------------
-------
----------------------------------1--1---1-----3--3---3----5--5-5---5-
-5-7-7-
----------------------------------------------------------------------
-------

--------------------------------------------3-------------------------
-------10---10--------10--10-------------------3---6------------------
-------------------------------2----3----5---------7-//---9---9-------
-10--10---10----10--10--10-----2----3----5---------7------10--10------
-------------------------------0----1----3---------5------7---7-------
----------------------------------------------------------------------

---------------------------------1--------3------ -5-
---------8-------8---------------1--------3------ -8-
------10---10------10------2--2--3--------5------ -5-
---10---------10------10---2--2--3--------5------ -7-
-8-------------------------0--0--1--------3------ -5-
------------------------------------------------- ---


Natural Science

Natural Science"
by Rush
from Permanent Waves
Lyrics by Neil Peart
Music by Geddy Lee & Alex Lifeson

Transcription by Paul Bryant (pbryant@protected.olga.net)

Song begins in 4/4

LEGEND: \ means slide down the neck toward headstock
! means play staccato

NOTE: Before you get your hopes up, alas, I did not transcribe the
solos.
Sorry, I'm just not fast enough. The rest is pretty accurate,
though, and a pleasure to play even without the solos.

I. Tide Pools

Figure A:

|-2---2-2--0--|-0---0--0-0-|-3---3-3--5-|-5---5--5-5-|
|-2---2-2--0--|-0---0--0-0-|-3---3-3--5-|-5---5--5-5-|
|-4---4-4--2--|-2---2--2-2-|-5---5-5--7-|-7---7--7-7-|
|-4---4-4--2--|-2---2--2-2-|-5---5-5--7-|-7---7--7-7-|
|-2---2-2--0--|-0---0--0-0-|-3---3-3--5-|-5---5--5-5-|
|-------------|------------|------------|------------|

Repeat Figure A - "When the ebbing ...
Repeat Figure A - "Along the ...
Repeat Figure A - "It leaves a ...
Repeat Figure A - "In a short-lived ....

Figure B:

"Each microcosmic ....
|-4---4-4-----|------------|-2----------|-4----------|
|-4---4-4-----|------------|-5----------|-7----------|
|-6---6-6-----|------------|-4----------|-6----------|
|-6---6-6-----|------------|-2----------|-4----------|
|-4---4-4-----|------------|-2----------|-4----------|
|-------------|------------|------------|------------|

Repeat Figure B - "A complete ....

|-2--2--2--4--|--4-4--4-4-4-|-2--2--2--0-|--0-0--0-0-0-|
|-2--2--2--4--|--4-4--4-4-4-|-2--2--2--0-|--0-0--0-0-0-|
|-4--4--4--6--|--6-6--6-6-6-|-4--4--4--2-|--2-2--2-2-2-|
|-4--4--4--6--|--6-6--6-6-6-|-4--4--4--2-|--2-2--2-2-2-|
|-2--2--2--4--|--4-4--4-4-4-|-2--2--2--0-|--0-0--0-0-0-|
|-2--2--2--4--|--4-4--4-4-4-|-2--2--2--0-|--0-0--0-0-0-|

|-2--2--2--4--|--4-4--4-4-4-|
|-2--2--2--4--|--4-4--4-4-4-|
|-4--4--4--6--|--6-6--6-6-6-|
|-4--4--4--6--|--6-6--6-6-6-|
|-2--2--2--4--|--4-4--4-4-4-|
|-2--2--2-----|-------------|

Repeat Figure A - "A simple kind of ...
Repeat Figure A - "flect upon our ...
Repeat Figure A - "busy little ...
Repeat Figure A - "out their ....

"Living in their pools ... ...
|-4--4--4--4--|--4-4--4-4-4-|-2--2--2--0-|------------|
|-4--4--4--4--|--4-4--4-4-4-|-2--2--2--0-|------------|
|-6--6--6--6--|--6-6--6-6-6-|-4--4--4--2-|------------|
|-6--6--6--6--|--6-6--6-6-6-|-4--4--4--2-|------------|
|-4--4--4--4--|--4-4--4-4-4-|-2--2--2--0-|------------|
|-------------|-------------|-2--2--2--0-|------------|

Figure C:

|-----------------|------------------|
|-----0-----------|-3----------------|
|---4-------0---2-|-------0---0---0--|
|-2-------0---0---|-----0------------|
|-------3---------|---2-----3---5----|
|-----------------|------------------|

Repeat Figure C: "Wheels within ....
Repeat Figure C - "spiral ....
Repeat Figure C - "pattern so ....
Repeat Figure C - "plex."
Repeat Figure C - "Time after time ....
Repeat Figure C - "sight of the ....
Repeat Figure C - "causes can't .....
Repeat Figure C - "fects"

Add Distortion

Repeat Figure C
Repeat Figure C
Repeat Figure C
Hold (w/ echo effects)
|-----------------|------------------|
|-----0-----------|-(3)--------------|
|---4-------0---2-|------------------|
|-2-------0---0---|------------------|
|-------3---------|------------------|
|-----------------|------------------|

II. Hyperspace

7/8 Time

|---------------|---------------|---------------|---------------|
|---------------|---------------|---------------|---------------|
|---------------|-------------2-|---------------|-------------2-|
|-4-2-4-2-4-2-0-|-4-2-4-2-4-5---|-4-2-4-2-4-2-0-|-4-2-4-2-4-5---|
|---------------|---------------|---------------|---------------|
|---------------|---------------|---------------|---------------|

|---------------|---------------|---------------|---------------|
|---------------|-------------3-|---------------|-------------3-|
|-4-2-4-2-4-2-0-|-4-2-4-2-4-5---|-4-2-4-2-4-2-0-|-4-2-4-2-4-5---|
|---------------|---------------|---------------|---------------|
|---------------|---------------|---------------|---------------|
|---------------|---------------|---------------|---------------|

4/4 Time

"A "
"Com-"
|---------|
|---------|
|-5-4-2---|
|-------5-|
|---------|
|---------|

7/8 Time

"Quantum leap ....
"puterized clinic for ....
|---------------|---------------|---------------|---------------|
|---------------|---------------|---------------|---------------|
|---------------|-------------2-|---------------|-------------2-|
|-4-2-4-2-4-2-0-|-4-2-4-2-4-5---|-4-2-4-2-4-2-0-|-4-2-4-2-4-5---|
|---------------|---------------|---------------|---------------|
|---------------|---------------|---------------|---------------|

"The universe ...
"who dance to a ....
|---------------|---------------|---------------|---------------|
|---------------|-------------3-|---------------|-------------3-|
|-4-2-4-2-4-2-0-|-4-2-4-2-4-5---|-4-2-4-2-4-2-0-|-4-2-4-2-4-5---|
|---------------|---------------|---------------|---------------|
|---------------|---------------|---------------|---------------|
|---------------|---------------|---------------|---------------|

"The"

|---------------|
|---------------|
|-5-4-2---------|
|-------5-4-2---|
|-------------5-|
|---------------|

"mess and the magic triumphant and .....
|---------------|---------------|---------------|---------------|
|---------------|---------------|---------------|---------------|
|---------------|---------------|---------------|---------------|
|---------------|-------------2-|---------------|-------------2-|
|-4-2-4-2-4-2-0-|-4-2-4-2-4-5---|-4-2-4-2-4-2-0-|-4-2-4-2-4-5---|
|---------------|---------------|---------------|---------------|


"mechanized world out of ....
|---------------|---------------|---------------|---------------|
|---------------|---------------|---------------|---------------|
|---------------|-------------2-|---------------|-------------2-|
|-4-2-4-2-4-2-0-|-4-2-4-2-4-5---|-4-2-4-2-4-2-0-|-4-2-4-2-4-5---|
|---------------|---------------|---------------|---------------|
|---------------|---------------|---------------|---------------|

4/4 Time

[First Time]
|----------------|
|----------------|
|----------------|
|-5-4-2----------|
|-------5-4------|
|-----------5-\--|

[Second Time] [Drum Fill]
|----------------|---------------|--------------|
|----------------|---------------|--------------|
|----------------|---------------|--------------|
|-5-4-2----------|---------------|--------------|
|-------5-4------|-2-------------|--------------|
|-----------5-\--|---------------|--------------|

|----------|----------|----------|----------|
|----------|----------|----------|----3--3--|
|----4-444-|----2-222-|----------|----2--2--|
|-4--4-444-|-2--2-222-|----5--5--|----0--0--|
|-2--------|-0--------|-5--5--5--|----------|
|----------|----------|-3--------|-2--------|

|----------|----------|----------|----------|
|----------|----------|----------|----3--3--|
|----4-444-|----2-222-|----------|----2--2--|
|-4--4-444-|-2--2-222-|----5--5--|----0--0--|
|-2--------|-0--------|-5--5--5--|----------|
|----------|----------|-3--------|-2--------|

|----------|----------|----------|---2-222--|
|----------|---2-222--|----------|---2-222--|
|----6-666-|---1-111--|----2-222-|----------|
|-6--6-666-|----------|-2--2-222-|-4--------|
|-4--------|-2--------|-0--------|----------|
|----------|----------|----------|-4--------|

|----------|----------|----------|---2-222--|
|----------|---2-222--|----------|---2-222--|
|----6-666-|---1-111--|----2-222-|----------| [1st Time - Repeat
Hyperspace]
|-6--6-666-|----------|-2--2-222-|-4--------|
|-4--------|-2--------|-0--------|----------| [2nd Time - Guitar solo
1]
|----------|----------|----------|-4--------|

Repeat Figure C: "Wheels within ....
Repeat Figure C - "spiral ....
Repeat Figure C - "pattern so grand ....
Repeat Figure C - "plex."
Repeat Figure C - "Time after ...
Repeat Figure C - "sight of the ....
Repeat Figure C - "causes can't ....
Repeat Figure C - "fects"

Add Distortion

Repeat Figure C
Repeat Figure C
Repeat Figure C

2/4 Time 4/4 Time
|-----------------|----------|------------|-2----------|
|-----0-----------|-3--------|-3----------|-3----------|
|---4-------0---2-|-------0--|-0----------|-2----------|
|-2-------0---0---|-----0----|-2----------|-0----------|
|-------3---------|---2------|-3----------|------------|
|-----------------|----------|------------|------------|

III. Permanent Waves

! ! ! ! ! ! ! ! ! ! ! !
|-2--2--2--2-|-0--0--0--0-|-0--0--2--2-|
|-4--4--4--4-|-2--2--4--4-|-0--0--2--2-|
|-4--4--4--4-|-2--2--2--2-|-1--1--2--2-|
|-4--4--4--4-|-2--2--2--2-|-2--2--2--2-|
|-2--2--2--2-|-0--0--0--0-|-2--2-------|
|------------|------------|------------|

! ! ! ! ! ! ! ! ! ! ! !
|-2--2--2--2-|-0--0--0--0-|-0--0--2--2-|
|-4--4--4--4-|-2--2--4--4-|-0--0--2--2-|
|-4--4--4--4-|-2--2--2--2-|-1--1--2--2-|
|-4--4--4--4-|-2--2--2--2-|-2--2--2--2-|
|-2--2--2--2-|-0--0--0--0-|-2--2-------|
|------------|------------|------------|

! ! ! ! ! ! ! ! ! ! ! !
|-0--0-0-|-2--2--2--2-|-0--0--0--0-|-0--0--2--2-|---0---0-
0-|
|-2--0-0-|-4--4--4--4-|-2--2--4--4-|-0--0--2--2-|---2---0-
0-|
[1st time] |-2--1-1-|-4--4--4--4-|-2--2--2--2-|-1--1--2--2-|---2---1-
1-|
Only |-2--2-2-|-4--4--4--4-|-2--2--2--2-|-2--2--2--2-|---2---2-
2-|
|-0--2-2-|-2--2--2--2-|-0--0--0--0-|-2--2-------|---0---2-
2-|
|----0-0-|------------|------------|------------|-------0-
0-|

"Science, like Nature must ....

|-2------0--0--0--|-3-3--3--3-2--3-2--|-------------0--|
|-3------2--2--2--|-0-0--0--0-0--0-0--|-3--3--3-3-2-0--|
|-2------2--2--2--|-0-0--0--0-0--0-0--|-2--2--2-2-2-0--|
|-4------0--0--0--|-0-0--0--0-0--0-0--|-2--2--2-2---0--|
|-5------0--0--0--|-2-2--2--2----2----|-----------2-2--|
|-----------------|-3-3--3--3-2--3-2--|----------------|

"with a view to - wards its ...."

|-2--3--5-3-----|-2------0--|-2-----3--|-0--------------|
|-3--3--2-3-----|-3------2--|-3-----0--|-0--------------|
|-2--2--2-2-----|-2------2--|-4-----0--|-1--------------|
|-0--0--2-0-----|-4------2--|-4-----0--|-2--------------|
|-------0-------|-----------|-2-----2--|-2--------0-2-4-|
|---------------|-----------|-------3--|-0--0-2-3-------|

"Given the same state of ....

|-2------0--0--0--|-3-3--3--3-2--3-2--|-------------0--|
|-3------2--2--2--|-0-0--0--0-0--0-0--|-3--3--3-3-2-0--|
|-2------2--2--2--|-0-0--0--0-0--0-0--|-2--2--2-2-2-0--|
|-4------0--0--0--|-0-0--0--0-0--0-0--|-2--2--2-2---0--|
|-5------0--0--0--|-2-2--2--2----2----|-----------2-2--|
|-----------------|-3-3--3--3-2--3-2--|----------------|

"it will surely serve us ....

|-2--3--5-3-----|-2------0--|-2-----3--|-0--------------|
|-3--3--2-3-----|-3------2--|-3-----0--|-0--------------|
|-2--2--2-2-----|-2------2--|-4-----0--|-1--------------|
|-0--0--2-0-----|-4------2--|-4-----0--|-2--------------|
|-------0-------|-----------|-2-----2--|-2--------0-2-4-|
|---------------|-----------|-------3--|-0--0-2-3-------|

Repeat III. Permanent Waves

Guitar Solo 2

"The most endangered ...

|-2------0--0--0--|-3-3--3--3-2--3-2--|-------------0--|
|-3------2--2--2--|-0-0--0--0-0--0-0--|-3--3--3-3-2-0--|
|-2------2--2--2--|-0-0--0--0-0--0-0--|-2--2--2-2-2-0--|
|-4------0--0--0--|-0-0--0--0-0--0-0--|-2--2--2-2---0--|
|-5------0--0--0--|-2-2--2--2----2----|-----------2-2--|
|-----------------|-3-3--3--3-2--3-2--|----------------|

"will still survive an....

|-2--3--5-3-----|-2------0--|-2-----3--|-0--------------|
|-3--3--2-3-----|-3------2--|-3-----0--|-0--------------|
|-2--2--2-2-----|-2------2--|-4-----0--|-1--------------|
|-0--0--2-0-----|-4------2--|-4-----0--|-2--------------|
|-------0-------|-----------|-2-----2--|-2--------0-2-4-|
|---------------|-----------|-------3--|-0--0-2-3-------|

"Forming a world, state ...

|-2------0--0--0--|-3-3--3--3-2--3-2--|-------------0--|
|-3------2--2--2--|-0-0--0--0-0--0-0--|-3--3--3-3-2-0--|
|-2------2--2--2--|-0-0--0--0-0--0-0--|-2--2--2-2-2-0--|
|-4------0--0--0--|-0-0--0--0-0--0-0--|-2--2--2-2---0--|
|-5------0--0--0--|-2-2--2--2----2----|-----------2-2--|
|-----------------|-3-3--3--3-2--3-2--|----------------|

"sensitive, o....

|-2--3--5-3-----|-2------0--|-2-----3--|
|-3--3--2-3-----|-3------2--|-3-----0--|
|-2--2--2-2-----|-2------2--|-4-----0--|
|-0--0--2-0-----|-4------2--|-4-----0--|
|-------0-------|-----------|-2-----2--|
|---------------|-----------|-------3--|

Figure D:

|--0-----3--|--2----3-3-2--|
|--0-----3--|--3----3-3-3--|
|--1-----0--|--2----0-0-2--|
|--2-----2--|--0--------0--|
|--2-----3--|-------2-2----|
|--0--------|--------------|

Repeat Figure D
Repeat Figure D
Repeat Figure D
Repeat Figure D
Repeat Figure D

|-2--2-2-2---|-0--0-0-0---|-3--3-3-3---|-5--5-5-5---|
|-2--2-2-2---|-0--0-0-0---|-3--3-3-3---|-5--5-5-5---|
|-4--4-4-4---|-2--2-2-2---|-5--5-5-5---|-7--7-7-7---|
|-4--4-4-4---|-2--2-2-2---|-5--5-5-5---|-7--7-7-7---|
|-2--2-2-2---|-0--0-0-0---|-3--3-3-3---|-5--5-5-5---|
|------------|------------|------------|------------|

|-2--2-2-2---|-0--0-0-0---|-3--3-3-3---|-5--5-5-5-\-|
|-2--2-2-2---|-0--0-0-0---|-3--3-3-3---|-5--5-5-5-\-|
|-4--4-4-4---|-2--2-2-2---|-5--5-5-5---|-7--7-7-7-\-|
|-4--4-4-4---|-2--2-2-2---|-5--5-5-5---|-7--7-7-7-\-|
|-2--2-2-2---|-0--0-0-0---|-3--3-3-3---|-5--5-5-5-\-|
|------------|------------|------------|------------|

|-4--4-4-4---|-2--2-2-2---|-7--7-7-7---|--9---9--9----|
|-4--4-4-4---|-2--2-2-2---|-7--7-7-7---|--9---9--9----|
|-6--6-6-6---|-4--4-4-4---|-9--9-9-9---|-11--11-11----|
|-6--6-6-6---|-4--4-4-4---|-9--9-9-9---|-11--11-11----|
|-4--4-4-4---|-2--2-2-2---|-7--7-7-7---|--9---9--9----|
|------------|------------|------------|--------------|

|-4--4-4-4---|-2--2-2-2---|-7--7-7-7---|--9---9--9----|
|-4--4-4-4---|-2--2-2-2---|-7--7-7-7---|--9---9--9----|
|-6--6-6-6---|-4--4-4-4---|-9--9-9-9---|-11--11-11----|
|-6--6-6-6---|-4--4-4-4---|-9--9-9-9---|-11--11-11----|
|-4--4-4-4---|-2--2-2-2---|-7--7-7-7---|--9---9--9----|
|------------|------------|------------|--------------|

"Wave after wave will ....
|-2--2-2-2---|-0--0-0-0---|-3--3-3-3---|-5--5-5-5---|
|-2--2-2-2---|-0--0-0-0---|-3--3-3-3---|-5--5-5-5---|
|-4--4-4-4---|-2--2-2-2---|-5--5-5-5---|-7--7-7-7---|
|-4--4-4-4---|-2--2-2-2---|-5--5-5-5---|-7--7-7-7---|
|-2--2-2-2---|-0--0-0-0---|-3--3-3-3---|-5--5-5-5---|
|------------|------------|------------|------------|

"bury the world as ....
|-2--2-2-2---|-0--0-0-0---|-3--3-3-3---|-5--5-5-5-\-|
|-2--2-2-2---|-0--0-0-0---|-3--3-3-3---|-5--5-5-5-\-|
|-4--4-4-4---|-2--2-2-2---|-5--5-5-5---|-7--7-7-7-\-|
|-4--4-4-4---|-2--2-2-2---|-5--5-5-5---|-7--7-7-7-\-|
|-2--2-2-2---|-0--0-0-0---|-3--3-3-3---|-5--5-5-5-\-|
|------------|------------|------------|------------|

"Tide after tide will ....
|-4--4--4-4--|-2--2--2-2--|-7--7--7-7--|--9---9--9-9---|
|-4--4-------|-2--2-------|-7--7-------|--9---9--------|
|-6--6-----6-|-4--4-----4-|-9--9-----9-|-11--11-----11-|
|-6--6-------|-4--4-------|-9--9-------|-11--11--------|
|-4--4-------|-2--2-------|-7--7-------|--9---9--------|
|------------|------------|------------|---------------|

"life to ...

|-4--4--4-4--|-2--2--2-2--|-7--7--7-7--|--9---9--9-9---|
|-4--4-------|-2--2-------|-7--7-------|--9---9--------|
|-6--6-----6-|-4--4-----4-|-9--9-----9-|-11--11-----11-|
|-6--6-------|-4--4-------|-9--9-------|-11--11--------|
|-4--4-------|-2--2-------|-7--7-------|--9---9--------|
|------------|------------|------------|---------------|

|-2--2--2--4----4-4--|------4-4-------4-4--|
|-2--2--2--4---------|---------------------|
|-4--4--4--6---6---6-|-----6---6-----6---6-|
|-4--4--4--6---------|-6---------6---------|
|-2--2--2--4---------|---------------------|
|--------------------|---------------------|

|-2--2--2--0----0-0--|------0-0-------0-0--|
|-2--2--2--0---------|---------------------|
|-4--4--4--2---2---2-|-----2---2-----2---2-|
|-4--4--4--2---------|-2---------2---------|
|-2--2--2--0---------|---------------------|
|--------------------|---------------------|

|-2--2--2--4----4-4--|------4-4-------4-4--|
|-2--2--2--4---------|---------------------|
|-4--4--4--6---6---6-|-----6---6-----6---6-|
|-4--4--4--6---------|-6---------6---------|
|-2--2--2--4---------|---------------------|
|--------------------|---------------------|

|-2--2--2--0---------|-0---------0---------|
|-2--2--2--0---------|-0---------0---------|
|-4--4--4--2---------|-2---------2---------|
|-4--4--4--2---------|-2---------2---------|
|-2--2--2--0---------|-0---------0---------|
|--------------------|---------------------|

Hold and Fade
|-0--0--2--4---------|---------------------|
|-0--0--2--4---------|---------------------|
|-2--2--4--6---------|---------------------|
|-2--2--4--6---------|---------------------|
|-0--0--2--4---------|---------------------|
|--------------------|---------------------|

Whew!

Now find a good drummer and have some fun with this song!


"NEED SOME LOVE" guitar tabs

NEED SOME LOVE" guitar tabs

transcribed by George Grinch (csc8mnp@protected.olga.net)

verse chorus
|------------------------------------------|--------------------------
---0-0--
|--4--5--4---4--5--4---2--2--2---5--5--5---|--3---3-3-----------------
---0-0--
|--4--4--4---4--4--4---2--2--2---4--4--4--.|--2---2-2--2---2-2------_-
-3------
|--4--2--4---4--2--4---2--2--2---2--2--2--.|--0---0-0--2---2-2--2--2-
4--------
|--2--2--2---2--2--2---0--0--0---2--2--2---|-----------0---0-0--2-----
--------
|------------------------------0-----------|--------------------0-----
--------
[repeat four times]

_
-0-2-0--_-----------------------------------------_-------------------
-------
-0-----3-0--_---3---3-3--------------------------2-0----3---3-3-------
-------
-----------2-0--2---2-2--2---2-2---------------------2--2---2-2--2---
2-2-----
----------------0---0-0--2---2-2--2--2-X-X-0-X-X--------0---0-0--2---
2-2--2--
-------------------------0---0-0--2------------------------------0---
0-0--2--
----------------------------------0-----------------------------------
----0--

---------------------------------------_------_------_--------|
--------------------------3--3--5--4--4-4-4--4-4-4--4-4-5--4--|
--------------------------0--2--4--4--4-4-4--4-4-4--4-4-4--4--|
repeat verse
-----0-0-2-2-----0-0------0--0--2--4--4-4-4--4-4-4--4-4-2--4--| and
chorus
-0-2---------0-2----------------2--2--2-2-2--2-2-2--2-2-2--2--|
---------------------0-3--------------------------------------|


bridge presolo
|--------------------------------------------------|------------------
---------|
|--------------------------------------------------|--9-9-9-9-9>--9-9-
9-9-9>---|
|-------------------------------------------------.|--9-9-9-9-9>--8-8-
8-8-8>--.|
|-------------------------0--2-2-2-2-2------0-----.|--9-9-9-9-9>--7-7-
7-7-7>--.|
|--2-2-2-2-2-2----0-2-0-2----0-0-0-0-0-0--2---0----|--7-7-7-7-7>--7-7-
7-7-7>---|
|--0-0-0-0-0-0--3-------------------------------3--|------------------
---------|
[repeat 6 times] [repeat 2 times]


solo
|---------------------------------------------------------------------
---
|-15------15--15-----------15---------15---------15---------15--------
-15
|-14>(16)-14>=(16)-14>(16)----14>(16)----14>(16)----14>(16)----
14>(16)---
|---------------------------------------------------------------------
---
|---------------------------------------------------------------------
---
|---------------------------------------------------------------------
---

|-----------------------------
|-----------------------------
|-12----14----12-------12-14--
|----14----14----12>14--------
|-----------------------------
|-----------------------------


----------------------------------------------------------------------
-------
-------------------------------------------_-----------_------------_-
-------
-14>-(16)-(16)-(16)-(16)-(16)-(16)-(16)>-14-12----14-14-12-----12-14-
12-----
-----------------------------------------------12-14------->14--------
--14--
----------------------------------------------------------------------
-------
----------------------------------------------------------------------
-------


----------------------------------------------------------------------
---
----15-------------_-----------_-----------------------------_--------
---
14>----14>-(16)->14-12-14-12-14-12----12---------7-9>-(11)->9-7---9-7-
7-9
-----------------------------------14----14--7-9----------------9-----
---
----------------------------------------------------------------------
---
----------------------------------------------------------------------
---


ending
gtr1 gtr2
------------------------------------|------|------|
------------------------------------|------|--9---|
-----7------------------------------|------|--9---|
-7-9---9-8-7---5-7<>-5-7-5----------|--2---|--9---|
---------------------------7-5-7<---|--2---|--7---|
------------------------------------|--0---|------|

The presolo and solo are played over the bridge, then the chorus is
played
once and then both the bridge and presolo are played once followed by
the
ending.

At the end of the chorus, the '_' between the B chords indicates the
rhythm
of two eighth notes followed by a quarter note. The slide at the end
of the
solo is played by running the pick down (towards the nut) the middle
strings.

--
Legend:

| - A pair of these indicate a part of music, not the usuals bars.
: - Indicates that a part is to be repeated. This may be ommited, you
should
hear it too.
_ - Indicates a hammer-on or pull-off (You should know which is
appropriate)
> - Indicates a bend-up or down or a slide. With a bend, the note to
bend to
is between '(' and ')'. Use the whammy for a downbend. With a
slide, the
follow-up note is the one to be slid to.
! - Indicates vibrato.
^ - Indicates a tapped harmonic. Is printed below the note.
. - Under the strings, it indicates the note is staccato (short).
\ - Indicates a general slide downwards from note, to no note in
particular.
AH - Indicates adding artificial harmonic with pick hand.
< - Indicates a downslide.
= - Indicates a held note. May also be a held bent. Used to give some
feel
for length when needed.
X - Pick noise.

----
For corrections or questions on the tabs, contact the author. If no e-
mail
address is included, contact Frank or Mario, addresses below. Contact
Frank
for guitar tabs, and Mario for bass tabs.

For remarks, suggestions or additions on the tab 'archive', contact:

Frank (guitar) or Mario (bass)
(schaaphe@protected.olga.net)
(motcid!marble!dalessio@protected.olga.net)

HAPPY PLAYING!!


Nobody's Hero TAB – RUSH

here's _Nobody Hero_ by Rush from _Counterparts_.

A brief note on chords. There are 3 chord namings which I should
explain.

1) The suspended seconds (sus2). People with some chord theory should
know
this, but for the less informed, its always root 5th barre chord with
the
2nd string "open". So a Csus2 is played like:
E|-3- For the Bbsus2 just move down the fret board. The Ebsus2 is
played
B|-3- differently. See below.
G|-5-
D|-5-
A|-3-
E|---

2) The Ebsus2. This has a very low sound to it, so I think Alex
fingers it
like so:
E|-1-
B|-4-
G|-3-
D|-1-
A|-1-
E|---

3) The Gm/A. Now I *know* this is the wrong name for the chord, but I
have
absolutely no idea what its proper name is. My handy-dandy book of
7,488
guitar chords doesn't seem to have it. Anyway, I finger it like this:
E|-3- If this looks kinda wacko, there is precedent for it. Alex
plays
B|-3- the same chord in _Lock and Key_. Check the video if you don't
G|-3- believe me :-)
D|-5-
A|-3-
E|-5-

The "Gm/A" chord may not sound quite right when you play it, but
that's
probably because Alex uses a "Nashville tuning" technique for his
guitar.
I'm not terribly familiar with this method, but I believe it involves
replacing the low, heavy, E, A, D strings with lighter guage ones so
they
are tuned up to the same octave as the higher strings. So when you
listen
to the cd at the "Gm Gm/A" change, it actually sounds like the change
in
fingering is occuring on the higher stirings, but I don't think it is.
It
sounds to me like the E, B, and G strings are unchanged through that
chord
change. But anyway, if you think you have a better idea than that by
all
means correct me.

As far as the two solos go, I haven't had time to figure them out, so
they
aren't included. Chords only. Sorry.

Strumming is pretty much the key to this tune. There is no way I can
effectively transcribe the strumming pattern here but if you listen to
the
cd and get a feel for the rhythm and where the chord changes occur,
you
should be able to get pretty close to the original.

Warning: Playing this song on an acoustic with a thick neck may cause
severe cramping of the left hand (it did for me anyways - but then
maybe its
just me; I get the same thing playing Distant Early Warning). :)

So, on with our show.


Nobody's Hero - Music by Lee and Lifeson
------------- Lyrics by Peart

intro:
Gm F Bbsus2 Csus2
Gm Gm/A F

verse 1:
Gm F Bbsus2
I knew he was different ...
Gm Gm/A F
I went to his parties as the ...
Gm F Bbsus2
He never seemed a threat to ...
Gm Gm/A F
He only introduced me to ...

Ebsus2

Gm F Bbsus2
As the years went by we ...
Gm Gm/A Dm Csus2 Bbsus2
When I heard that he ...

chorus1:
Dm
But he's ....
Csus2
- Saves a ....
Am G
- Cures a ...

F
Hero
Am < -- I hear a Dm here... Z.
- Lands a crippled ...
Csus2 G
- Solves ...

Dm
Hero
Csus2
- Not the handsome ...
Am G
who plays the ....

F
Hero
Dm
- Not the ...
Csus2
who'd love to sell ....

Am G Dm
If anybody's buying ....

solo1:
Gm F Bbsus2 Csus2
Gm Gm/A F Ebsus2
P.H.

-6--6--6-H-8-P-6------6--10--|----15--15-P-13-------------------------
--
------------------10---------|--15--15-------13---13-13-13--13-11--
<11>-
-----------------------------|-----------------------------------12---
--
-----------------------------|----------------------------------------
--
-----------------------------|----------------------------------------
--
-----------------------------|----------------------------------------
--

verse2:
Gm F Bbsus2
I didn't know the girl ...
Gm Gm/A F
All their lives were ....
Gm F Bbsus2
They tried to carry on, ...
Gm Gm/A F
Tried to hold some faith in the ....

Ebsus2

Gm F Bbsus2
As the years ....
Gm Gm/A Dm Csus2 Bbsus2 Gm
When I heard that she was gone ....

chorus2:
Dm
But she's Nobo...
Csus2
- Is the voice ....
Am G
Against the ....

F
Hero
Am <--- (Dm)
- Is the pride ...
Csus2 G
In the ....

Dm
Hero
Csus2
- Not the ...
Am G
Who plays the ...

F
Hero
Dm
- Not the ....
Csus2
Who loves to sell ....

Am G Dm
Everybody's ....

solo2: repeat Gm F Bbsus2
Gm Gm/A F

---------------|-----------------------------------|------------------
-
------10---11--|---18-18-18--18-16-15----------15--|-------10--11-----
-
--12--10---10--|----------------------17-15-17-----|---12--10--10-----
-
--12-------8---|-----------------------------------|---12------8------
-
---------------|-----------------------------------|------------------
-
---------------|-----------------------------------|------------------
-

------------------|---------------------------------------------------
-
----------15--15--|---------16--15--16--18--(18)----------------------
-
------15--15--15--|--17--15-------------------F-----------------------
-
--15--15----------|---------------------------------------------------
-
--17--------------|---------------------------------------------------
-
------------------|---------------------------------------------------
-



Gm F Bbsus2
As the years went by we ...
Gm Gm/A Dm Csus2 Bbsus2
When I heard that you were gone I ....

chorus3:
Dm
But he's ...
Csus2
- Saves a ....
Am G
- Cures a ...

F
Hero
Am
- Lands a crippled...
Csus2 G
- Solves great ...

Dm
Hero
Csus2
- Not the handsome....
Am G
who plays ....

F
Hero
Dm
- Not the ...
Csus2
who'd love to ...

Am G Dm
If anybody's buying .....
outro:
Csus2 G
F Am Csus2 G
Nobody's ....
Dm Csus2 Am G
Hero
F Am Csus2 G
Nobody's ...
Dm Csus2 Am G
Hero

repeat to fade out.

------------------------
It seems pretty clos









"Panacea" - Rush (CARESS OF STEEL ALBUM)




"Panacea" - Rush (CARESS OF STEEL ALBUM)
------------------------------------------------
INTRO SECTION


Am C G Am Am C GaddD
E|-------------------|-------0--0---|-----------------|-3-------|
B|--1--------1---1---|-0---0----1---|-1-------1---1---|-3-------|
G|----2--------0-----|---0------2---|---2-------0-----|-0-------|
D|-------------------|----------2---|-----------------|-0-------|
A|--0---0-2--3---3---|----------0---|-0---0-2-3---3---|-2-------|
E|-------------------|-3---3--------|----------------0|-3-------|




The whitness of confusion is ...


DaddG,E slide to CaddD
E|-5-------------|-5---------5-|-3-------------|-3---------3-|
B|---5-------5---|---5---------|---3-------3---|---3---------|
G|-----0---0---0-|-----0---0---|-----0---0---0-|-----0---0---|
D|-------4-------|-------4-----|-------2-------|-------2-----|
A|-5-------------|-5---------5-|-3-------------|-3---------3-|
E|---------------|-------------|---------------|-------------|




I stare around in wonder. Have I ....


GaddD GaddD/B CaddD A* A
E|-3-------------|-3-------------|-3-----3-|-5-----5--787---5-|
B|---3-------3---|---3-------3---|---3-----|---5------------5-|
G|-----0---0---0-|-----0---0---0-|-----0---|-----2----------6-|
D|-------0-------|-------0-------|---------|----------------7-|
A|---------------|-2-------------|---------|-0-----0----------|
E|-3-------------|---------------|-3-----3-|------------------|




I catch the scent of ...


A C Fmaj7 CaddD
E|-------------0---|---0-------0-|---0---------0-|-3-------3-|
B|-----2---2---2---|-----1-----1-|-----1-----1---|---3-------|
G|---2---2---------|-------0-----|-------2-------|-----0-----|
D|-----------------|-------------|---3-----3-----|-------0---|
A|---0---0---0---0-|---3-----3---|---------------|-----------|
E|-----------------|-------------|---------------|-3-------3-|




My gaze is caught, and held and I, ...
strum freely
A C Fmaj7 E Esus4
E
E|-------------0---|---0-------0-|---0---------0-|-0----------0-------
0-|
B|-----2---2---2---|-----1-----1-|-----1-----1---|-0----------0-------
0-|
G|---2---2---------|-------0-----|-------2-------|-1----------2-------
1-|
D|-----------------|-------------|---3-----3-----|-2----------2-------
2-|
A|---0---0---0---0-|---3-----3---|---------------|-2----------2-------
2-|
E|-----------------|-------------|---------------|-0----------0-------
0-|




Panacea, liquid grace. Oh, ....
strum freely
AaddB C AaddB C
E|-0--------------|-0---------|-0-----------------------------|-0-----
--|
B|-0--------------|-1---------|-0-----------------------------|-1-----
--|
G|-6--------------|-0---------|-6-----------------------------|-0-----
--|
D|-7--------------|-2---------|-7-----------------------------|-2-----
--|
A|-7--------------|-3---------|-7-----------------------------|-3-----
--|
E|-5--------------|-----------|-5-----------------------------|-------
--|




Enchantment falls around me and I ....


Fmaj7/C GaddD G D E
E|-0--------------------|-3----|-3-----3-|-2-----2H3P2-----|-0-------|
B|-1--------------------|-3----|---0-----|---3---------3---|-0-------|
G|-2--------------------|-0----|-----0---|-----2---------2-|-1-------|
D|-3--------------------|-0----|---------|-0-----0---------|-2-------|
A|-0--------------------|-2----|---------|-----------------|-2-------|
E|----------------------|-3----|-3-----3-|-----------------|-0-------|



NOW PLAY INTRO SECTION (Am C G Am Am C GaddD)



DaddG,E CaddD
Here's a meaning for my life, ....
GaddD G A* A
Pacify my troubles with her ...
DaddG,E CaddD
Naked in our unity, a smile....
GaddD G A* A
Gentle hands that promise me, ...



A C Fmaj7 E Esus4 E
Yet I know I must be gone before ....


AaddB C
Panacea, ....
AaddB C NB adds in G X32011
I can't resist .....

EXIT SECTION



My heart will lie beside you....
Am GaddD Am E7 Am
E|------------------------|-3-------|-----------|-----0---|-0-------|
B|---0-0H1---3-1----------|---3-----|---0-1-3-1-|-0-----3-|-1-------|
G|-2----------------------|-----0---|-2---------|---0-----|-2-------|
D|------------------------|-------0-|-----------|---------|-2-------|
A|-0-------0--------------|---------|-0---------|-2-------|-0-------|
E|------------------------|-3-------|-----------|---------|---------|


Chords:


A X02220
A* X02255
Am X02210
AaddB 577600
C X32010
CaddG X32013
CaddD X32033
DaddG,E X54055
E 022100
E7 022130
Esus4 022200
Fmaj7 XX3210
G 320003
GaddD 320033
GaddD/B X20033


Any corrections/ammends are welcome (Quiiiiet)
Vincent Baranowski
email : VINBAR@protected.olga.net


A Passage To Bangkok tab

A Passage To Bangkok tabs.

A Passage To Bangkok tabs.

Transcription by: Charles Grogan


Intro Rif 'Eastern sounds'
------------------------------------|-10-10-10-10-9-9-------9--------
------------------------------------|--8--8--8--8-7-7-10-10-7--------
------------------------------------|------------------7--7----------
------------------------------------|--------------------------------
----7---5---7->-2-2-----------------|--------------------------------
0-0---0---0---------0-0-8-0-7-8->-3-|--------------------------------

>From 'The natives smile..'

-------_--------------|----------------------------------------------
-8-7--8-7--------_----|----------------------------------------------
----------8-9-8-9-8---|----------------------------------------------
--------------------9-|----------------------------------------------
----------------------|----------------------------------------------
----------------------|----------------------------------------------

>From 'Sweet Jamaican pipedreams..'

-----------------3-|-------------------------------------------------
9-7-9->-4--5-5-5-3-|-------------------------------------------------
9-7-9->-4--5-5-5-4-|-------------------------------------------------
9-7-9->-4--5-5-5-5-|-------------------------------------------------
7-5-7->-2--3-3-3-5-|-------------------------------------------------
-----------------3-|-------------------------------------------------

Chorus

-2-3-7-5-2-3-2-3-0-2--2-3-7-8-7-2-3-0-|------------------------------
-3-5-8-7-3-3-3-0-2-3--3-5-8-8-8-3-0-2-|------------------------------
-2-5-7-7-2-3-2-0-2-2--2-5-7-7-7-2-0-2-|------------------------------
-0-0-0-0-0-0-0-0-2-0--0-0-0-0-0-0-0-2-|------------------------------
---------------2-0----------------2-0-|------------------------------
---------------3------------------3---|------------------------------

Solo

---------------------------------------------------------------------
10---------------------------------_-_-_-_-_-_--12-!-----------------
-9->-(11)->-9-7-7->-(9)->-7---7->-4-7-4-7-4-7-4----------------------
----------------------------9----------------------------------------
---------------------------------------------------------------------
---------------------------------------------------------------------

---10-12-10----10----------------------_-----------------------------
12----------12----12->-(15)->-12-!---14-12_----12--------------------
-------------------------------------------13-----14->-(16)->-14-----
---------------------------------------------------------------------
---------------------------------------------------------------------
---------------------------------------------------------------------


---------------------------------------------------------------------
12-10----------------------------------------------------------------
------11-9-11-9->-(11)->-9-!-->-11-9->-(11)-9-9->-(11)->-9--9-8-7----
---------------------------------------------------------------------
---------------------------------------------------------------------
---------------------------------------------------------------------


---------------------------------------------------------------------
---------------------------------------------------------------------
---------------------------------------------------------------------
9-8-7----------------------------------------------------------------
------9-8-7--------------------_-----------_---------------_---------
------------11-10-9-7--7-7-7--7-9--9-9-9--9-10--10-10-10-10-12-12-12-


---------------------------------------------------------------------
--------------------------_------------------------------------------
--------7---7-9->-(11)->-9-7_----------------------------------------
----7-9---9------------------7---------------------------------------
9-9------------------------------------------------------------------
---------------------------------------------------------------------

_ _
----------------------------------------7-9-10-10->-(12)-10-7-7-10-7_-
--7
-----------7-10-10->-(12)->-10-7---7-10------------------------------
10--
9-9->-(11)-----------------------9------------------------------------
---
----------------------------------------------------------------------
---
----------------------------------------------------------------------
---
----------------------------------------------------------------------
---


------10-----------------------------_------------_-----------_------
10-12----12->-(15)->-12--12-12-12--10-12-12-12--12-10_---10-10-7-----
------------------------------------------------------11-------------
---------------------------------------------------------------------
---------------------------------------------------------------------
---------------------------------------------------------------------


---------------------------------------------------------------------
-_---------------10----------10----------10----------10-10-----------
9-7_--7-9->-(11)----9->-(11)----9->-(11)----9->-(11)-----9->-(11)----
----9----------------------------------------------------------------
---------------------------------------------------------------------
---------------------------------------------------------------------


-------------------------------------17----------_--------------------
-
---------10-10-------------17->-(19)----(19)->-17-15_---15-----------
15
9->-(11)-----9->-(11)->-16---------------------------16----14->-(16)--
-
----------------------------------------------------------------------
-
----------------------------------------------------------------------
-
----------------------------------------------------------------------
-


------------------------------------------------------------------_--
----------15-----------15------------12-12-10----10-12->-(14)->-12-10
14->-(16)----14->-(16)----14->-(16)-----------11---------------------
---------------------------------------------------------------------
---------------------------------------------------------------------
---------------------------------------------------------------------


--2-|----------------------------------------------------------------
--3-|----------------------------------------------------------------
9-2-|----------------------------------------------------------------
--0-|---------0-0-1-1-2----------------------------------------------
----|-0-0-4-4--------------------------------------------------------
----|----------------------------------------------------------------

---
Explanation on used symbols:

| - A pair of these indicate a part of music, not the usuals bars.
: - Indicates that a part is to be repeated. This may be ommited, you
should
hear it too.
_ - Indicates a hammer-on or pull-off (You should know which is
appropriate)
> - Indicates a bend-up or down or a slide. With a bend, the note to
bend to
is between '(' and ')'. Use the whammy for a downbend. With a
slide, the
follow-up note is the one to be slid to.
! - Indicates vibrato.
^ - Indicates harmonics. Is printed below the note.


Presto

- repeat previous beat, single slashes /,\ - slide
(21)F - full bend, etc...

E D A Gsus4 C/G Bbsus2 F

--x---2--|--0---3---|----0---------1--------1-------------------------
---
--5---3--|--2---3---|----1---------1--------1-------------------------
---
--4---2--|--2---0---|----0----//---3---//---2---//--------------------
---
--2---0--|--2---0---|----2---------3--------3-------------------------
---
--2---0--|--0---3---|----3---------1--------3-------------------------
---
--0---x--|------3---|----3---------1--------1-------------------------
---


D Csus2 B A/B D, Csus2, Dsus4, D, Dsus2, G, A,
G

--2---------|--------------------|---2--3----3------2-------0---3--0--
3--
--3-----3---|--------------------|---3--3----3--//--3--//---3---3--2--
3--
--2-----0---|---4---2--4--2--4---|---2--0----2------2-------2---0--2--
0--
--0-----2---|---4---2--4--2--4---|---0--2----0------0-------0---0--2--
0--
--------3---|---2--(2)........---|------3-----------------------2--0--
2--
------------|--------------------|------------------------------3-----
3--


E A B A E, A, C#5, B/C#
--0---0------0--|---------------------|-------------------------------
---
--0---2---4--2--|---------------------|-------------------------------
---
--1---2---4--2--|---------6----4------|-------------------------------
---
--2---2---4--2--|---------6----4------|-------------------------------
---
--2---0---2--0--|---------4........---|-------------------------------
---
--0-------------|-----------sim.------|-------------------------------
---

------------------14--|--14--16--18--//---19 P 14 H 19 P 14----14-----
---
--12--11--12--14------|-------------------------------------19----19--
14-
----------------------|-----------------------------------------------
---
----------------------|-----------------------------------------------
---
----------------------|-----------------------------------------------
---
----------------------|-----------------------------------------------
---

------------------------------|--21-(21)-21-19-18-H-19-P-18-----------
---
-11--9--8-H-9-P-8--\-6--4--3--|------F----------------------18-19-21--
---
------------------------------|---------------------------------------
---
------------------------------|---------------------------------------
---
------------------------------|---------------------------------------
---
------------------------------|---------------------------------------
---

G Am7 D Csus2 G,Am7, E, D/E
----------------|------|---3-----0------2----0-----|------------------
---
-18-19-21-(21)--|-20---|---3-----1------3----3-----|----------sim.----
---
------------F---|------|---0-//--0--//--2-//-0--//-|------------------
---
----------------|------|---0-----2------0----2-----|--------2--0------
---
----------------|------|---2-----0-----------3-----|--------2--0------
---
----------------|------|---3-----------------------|--------0--...----
---



Prime Mover

Rush
Prime Mover
Hold Your Fire
Music and Lyrics by Lee, Lifeson, and Peart

Transcribed by Tony Zimmermann
<97445@protected.olga.net>
Comments Welcome

---------------------------------------------------|---2--2-----------
---------------------------------------------------|---3--3-----------
--2--2--2--2--2--2--2--2--2--2--2--2--2--2--2--2---|---2--2-----------
--0--0--0--0--0--0--0--0--0--0--0--0--0--0--0--0---|---0--0-----------
---------------------------------------------------|------------------
---------------------------------------------------|------------------
Palm mute, 2x D, 2x

--2--2------2-------------------|---3--3------------------------------
--3--3------3---------2---------|---3--3------------------------------
--2--2------4---------2---------|---0--0------------------------------
--0--0------4---------2---------|---0--0------------------------------
------------2---------0---------|---2--2------------------------------
--------------------------------|---3--3------------------------------
D Bm A (2x)


Top part: Rhy. Fig. 1

Basic Elemental...
|-----2-P-0----3----2-P-0--|-----2-P-0----3----2-P-0------------------
|-----------3-------------3|-----------3-------------3----------------
|--------------------------|------------------------------------------
|--------------------------|------------------------------------------
|--------------------------|------------------------------------------
|--------------------------|------------------------------------------
| (Two Guitars) |
|--------------------------|------------------------------------------
|--------------------------|------------------------------------------
|--------------------------|------------------------------------------
|--------------------------|------------------------------------------
|--2-----------------------|--0---------------------------------------
|--------------------------|------------------------------------------

(Bm) (D) (A) (Bm) (D) (A)
Alternating currents ...
|---------------------------------------------------------------------
|------------------------------------------------------A.H.-----------
|------------------------------------------------2-----<2>------------
|---------------------------------------------2-----2-----------------
|-------------------------------------0---/4--------------------------
|---------------------------------------------------------------------

(Bm) (D) (A) (Bm) (D) (A)
Rational resistance ....
|----------------------------------------------------3----------------
|------------------------------------/3--2-----------3----------------
|-------------------------------------------2--------0----------------
|----------------------------------------------2-----0----------------
|-------------------------------------------------0--2----------------
|----------------------------------------------------3----------------
G

(G)
Anything can...


Verses: (Guitars are Nashville-tuned w/4 bottom strings up 1
octave)

(D) (G)
>From the point ...

(Bm) (E) E:022100
To the moment ...

(D) (G)
At the point ...

(Bm) (A)
to the ....


w/Rhy.Fig.1 (3x)
>From the point ...

(E)
to the ...

w/Rhy.Fig.1 (3x)
The point of ...

(A)
is not ....

(G)
Anything can ....



Guitar Tacet until "Alternating Currents..."




I set the wheels in motion....
--------------------0--------------------------0----------------------
----------------0------0-------------------0-------0------------------
------------6--------------------------4------------------------------
--------6--------------------------4----------------------------------
----4--------------------------2--------------------------------------
----------------------------------------------------------------------


(C#m) (E5) (B) E5: x799xx
I set the clouds ...

(C#m) (E5) (B)
Turn up light ....

(C#m) (E5) (B)
Activate ....

(A)
and watch the world ....


Palm Mute: (2x) 1. 2.
--2------------3-------------3----|------|----------------------------
--3------------3--------3----3----|------|----------------------------
--2------2-----0--------2----0----|------|----------------------------
--0------2-----0--------0----0----|--2---|---/-9-~~~~~~---------------
---------0--------------0----2----|--2---|---/-9-~~~~~~---------------
------------------------2----3----|--0---|----------------------------
Depress Tremolo bar before
striking note
Outro chords:

D A G
D/F# G E A D/F#: 20023x


Rush - Red Barchetta

Rush - Red Barchetta

From the CD 'Moving Pictures'
Written by Lee/Lifeson/Peart, inspired by 'A Nice
Morning
Drive' by Richard S. Foster
Mercury/Polygram Records 800048-2

Standard tuning. The key is D, I think.

Jimmy Pena - jimmy@protected.olga.net

| = not a standard bar line; just used to separate music
~ = vibrato or held note
h = hammer on
p = pull off
s = slide
b = bend string up to indicated pitch/fret
r = release bend to indicated string/fret
/ = slide up from infinity
\ = slide down into infinity
<5> = natural harmonic (lightly touch the string at fret indicated)
[5] = artificial harmonic (use thumb to follow through the pick
attack)

[Intro]
e:------------------------------------|
B:------------------------------------|
G:o-<12>------------<12>-------------o|
D:o---------<7>-----------<7>--------o|
A:------<7>-----<12>----<7>-----<12>--|
E:------------------------------------|

[Riff 1]
e:-------------------------------|
B:--------------------------<7>--|
G:o---<7>-<5>--------<7>-<5>----o|
D:o----------<7>----------------o|
A:--<9>-----------<9>------------|
E:-------------------------------|

** Note: There are many variations on these themes throughout the
song.
These are just the basic structures. Hold down the
chord
and arpeggate freely.

[Riff 2]
Asus4 Asus4/F#
e:---------------------------------|--------------------------------|
B:--------3--2------2------3---2---|--------3--2------2-----3-2-----|
G:------2--------2----2------------|------2--------2----2---------2-|
D:----2--------2--------2----------|----2--------2--------2-----2---|
A:--0------------------------------|--------------------------------|
E:---------------------------------|--2-----------------------------|

Asus4/G Dsus2
e:-------------------------------------|--------0----------------0---|
B:---------3--2------2------3--2-------|------3---3----2-2-2-2h3-----|
G:-------2--------2----2------------2--|----2-------2----------------|
D:-----2--------2--------2--------2----|--0--------------------------|
A:-------------------------------------|-----------------------------|
E:--3----------------------------------|-----------------------------|

[Riff 3]
F G
e:------|----1------1------1------1------1------1-------3--3--|
B:------|----1------1------1------1------1------1-------3--3--|
G:------|-----------------------------------------------4--4--|
D:------|-----------------------------------------------5--5--|
A:-3-2--|--------------------------------------------3--5--5--|
E:------|-1----0--0---0--1---0--0----0-1---0--0---0--1--3--3--|

[Riff 4]
G A D G A Asus4
e:-------------------|----------------------7--/9--10-9\--------|
B:-------------------|----------------------8--/10-10-10\-------|
G:---------2---------|-2--2----------2------7--/9--9--9\--------|
D:----2----0----2----|-0--0----2-----0--------------------------|
A:----0---------0----|---------0--------------------------------|
E:-3b---3b---3b---3b-|------3b---3b----3b-----------------------|


[Riff 5]
F C F G
e:--1--1----------1--1----------1--1----------5s7--7--7--------|
B:--1--1--1--1----1--1--1--1----1--1--1--1----6s8--8--8--------|
G:--2--2--0--0----2--2--0--0----2--2--0--0----5s7--7--7--------|
D:--3--3--2--2----3--3--2--2----3--3--2--2---------------------|
A:--3--3--3--3----3--3--3--3----3--3--3--3---------------------|
E:-------------------------------------------------------------|

[Riff 6]
G/D A/D
e:--7---------7---9------------9----7---------7-9----10---9-----------
|
B:--8---------8---10-----------10---8---------8-10---10---10----------
|
G:--7---------7---9------------9----7---------7-9----9----9-----------
|
D:--0-0-0-0-0-0---0--0-0-0-0-0-0----0-0-0-0-0-0-0----0----0-----------
|
A:--------------------------------------------------------------------
|
E:--------------------------------------------------------------------
|

[Riff 7] (technically starts with first Bb)
Bb F C# G#
e:-7-7-9--10-9--|-----------------------------------------------|
B:-8-8-10-10-10-|--3~--1--1---3~--1--1---6~--4--4---6~--4--4----|
G:-7-7-9--9--9--|--3~--2--2---3~--2--2---6~--5--5---6~--5--5----|
D:-0-0-0--0--0--|--3~--3--3---3~--3--3---6~--6--6---6~--6--6----|
A:--------------|--1~--3--3---1~--3--3---4~--6--6---4~--6--6----|
E:--------------|------1--1-------1--1-------4--4-------4--4----|

[Riff 8]
E B G D
e:-------------------------------------------------------------------|
B:--9~--7--7---9~--7--7---12~---------------12-12-12-12-12-12-12-12--|
G:--9~--8--8---9~--8--8---12~--11-11-11-11--12-12-12-12-12-12-12-12--|
D:--9~--9--9---9~--9--9---12~--12-12-12-12--12-12-12-12-12-12-12-12--|
A:--7~--9--9---7~--9--9---10~--12-12-12-12--10-10-10-10-10-10-10-10--|
E:------7--7-------7--7--------10-10-10-10---------------------------|

Song progression:

[Intro] x5
[Riff 1] x4

[Riff 2] x1

[Riff 2] x2 /w lyrics:

My uncle has a ....

[Riff 3] x2
[Riff 4] x1

[Riff 4] x2 w/ lyrics:

Jump to the ground as the turbo slows to ....

[Riff 5] x2 w/ lyrics:

Down in his barn, my uncle preserved for ....

[Intro] x1

[Riff 2] x2 /w lyrics:

I strip away the old ....

e:----------------------------|
B:----------------------------|
G:----------------------------|
D:----------------------------|
A:----------------------------|
E:--------5-------------------|
(Bend this note into infinity, mix with heavy flange)

[Riff 6] x2

[Riff 6] x3 /w lyrics:

Wind in my hair, shifting .....,

[Riff 7] x1 /w lyrics:

-- adrenalin surge.....

[Riff 7] x1 w/ lyrics:

Well weathered leather, hot metal ....

[Riff 8] x1 w/ lyrics:

Sunlight on chrome, the blur of ....

[Guitar Solo] (in 7/4 btw)

e:--9--7--5----------------|------------------------------------------
-|
B:----------7--5-----------|------------------------------------------
-|
G:---------------6--4------|--------------------------4-6-7--6-7-9-7--
-|
D:--------------------7--4-|--------------------4-6-7-----------------
-|
A:-------------------------|--------------4-5-7-----------------------
-|
E:-------------------------|-5~-5~-5~--7------------------------------
-|

e:---------------------------------|----------------------------------
-|
B:--------------7----------[7]h8p7-|---5------------------------------
-|
G:-9b11r9-7--9----[9]b11~----------|-7---[7]-6--7b9r7b9--7-6---------
6-|
D:---------------------------------|-------------------------7----/7--
-|
A:---------------------------------|---------------------------7------
-|
E:---------------------------------|----------------------------------
-|

e:-----------------|-----------------------------------|---------5----
-|
B:--5--5-------5---|-7~--7~-7~--7~--7-7--------------7-|-------3------
-|
G:-----------6---6-|---------------------6-6-----4s6---|-2s3s4--------
-|
D:-------5s7-------|-------------------------7---------|--------------
-|
A:-----------------|-----------------------------------|--------------
-|
E:-----------------|-----------------------------------|--------------
-|

e:-------5---------5--|---------10-------10-------12-----------14-----
-|
B:-----3---------3----|-------10-------10-----------------------------
-|
G:-3s4-----2s3s4------|--9s11-------11------11s12----12--12s14--------
-|
D:--------------------|-----------------------------------------------
-|
A:--------------------|-----------------------------------------------
-|
E:--------------------|-----------------------------------------------
-|

[Riff 4] x1 (repeat first part 3 times)

[Riff 2] x2 /w lyrics:

Suddenly ahead of ....

[Riff 3] x2
[Riff 4] x1

[Riff 4] x2 w/ lyrics:

Drive like the wind, straining the ....

[Riff 5] x2 w/ lyrics:

At the one lane bridge I leave the ....

[Riff 5] x1

[Intro] x7
[Riff 1] x4

Repeat until fadeout:

e:------------------------------------------------------------|
B:------------------------------------------------------------|
G:---0-----2-------------0------------------------------------|
D:-----2--------------0------4--------------------------------|
A:-------------0---4------------------------------------------|
E:------------------------------------------------------------|


Red Lenses

Red Lenses

From the CD 'Grace Under Pressure'
Written by Lee/Lifeson/Peart
Mercury/Polygram Records 818476-2

This tab is a royal mess. It was a real pain to do, and I hope
you people appreciate it. This song isn't so popular, so why the hell
did
I tab it? The key is E, switching to Ab for the keyboard interludes.

Jimmy Pena - jimmy@protected.olga.net

| = not a standard bar line; just used to separate music
~ = vibrato or held note
/ = slide up from infinity
\ = slide down into infinity
o \_
o / repeat sign (always look for these!)
[x35553] = fret box; this is a C chord - this is the same as standard
tablature, only turned on its side. Tilt your head clockwise to
read.

Chord legend:

C#m7 : [9/11/9999]
F# : [244322]
F#7sus4 : [242422]
F#7(AddB) : [x44300]
E : [022100]


[Riff 1]
Eb7
e:--15--15---15--15--15--15--15---15~~-------------------------------|
B:--14--14---14--14--14--14--14---14~~-------------------------------|
G:--15--15---15--15--15--15--15---15~~-------------------------------|
D:--13--13---13--13--13--13--13---13~~-------------------------------|
A:-------------------------------------------------------------------|
E:-------------------------------------------------------------------|

[Riff 2]
Gb6
e:--11-11-11-11---11-11-11-11---11-11-11-11--------------------------|
B:--11-11-11-11---11-11-11-11---11-11-11-11--------------------------|
G:--11-11-11-11---11-11-11-11---11-11-11-11--------------------------|
D:--11-11-11-11---11-11-11-11---11-11-11-11--------------------------|
A:---9--9--9--9----9--9--9--9----9--9--9--9--------------------------|
E:-------------------------------------------------------------------|

[Riff 3]
Ab Absus4
e:---8--8--8--8----8--8--8--8----9--9--9--8--------------------------|
B:---9--9--9--9----9--9--9--9----9--9--9--9--------------------------|
G:---8--8--8--8----8--8--8--8----8--8--8--8--------------------------|
D:--10-10-10-10---10-10-10-10---10-10-10-10--------------------------|
A:-------------------------------------------------------------------|
E:-------------------------------------------------------------------|

Song progression:

C#m7 C#m7
I see red. An'it hurts ...


F# F# F# F# F#7sus4 3x F#7(addB)
I guess it must be ...

E5 F#9 G9 G#9
e:-------------------------------------------------------------------|
B:--5---------9--10--11\---------------------------------------------|
G:--4---------9--10--11\---------------------------------------------|
D:--2---------8---9--10\---------------------------------------------|
A:--2---------9--10--11\---------------------------------------------|
E:-------------------------------------------------------------------|

Keyboard arr. for guitar: play 3 times

e:------------11---|------------11--14--|
B:--13---14--(11)--|--13---14-----------|
G:o----------(12)--|-------------------o|
D:o----------(13)--|-------------------o|
A:-----------------|--------------------|
E:-----------------|--------------------|

[Riff 1] x1
[Riff 1] x2 very freely
It's the color of ...,
[Riff 2] x2
A rising summ...,
[Riff 3] x2
The battle lost ...
[Riff 1] x1 C#m7
The flash to fashion, the puls...
C#m7
Inside my head.


F# F# F# F#~ F#7sus4 3x F#7(addB)
And truth is something ...

E E E C#m7
I said red...
C#m7 C#m7 C#m7 C#m7
I'm thinking about the ove...

F# F#7sus4 F#7(addB)
Couldn't we talk about ...

E5 F#9 G9 G#9
e:-------------------------------------------------------------------|
B:--5---------9--10--11\---------------------------------------------|
G:--4---------9--10--11\---------------------------------------------|
D:--2---------8---9--10\---------------------------------------------|
A:--2---------9--10--11\---------------------------------------------|
E:-------------------------------------------------------------------|

Keyboard arr. for guitar: play 3 times

e:------------11---|------------11--14--|
B:--13---14--(11)--|--13---14-----------|
G:o----------(12)--|-------------------o|
D:o----------(13)--|-------------------o|
A:-----------------|--------------------|
E:-----------------|--------------------|

[Riff 1] x1
[Riff 1] x2 very freely [Riff 2] x2
We've got Mars on the horizon, ...
(It's true.)
[Riff 3] x2
What you believe is ...

[Riff 1] x1 C#m7
A pair of dancing shoes the ....

C#m7
bed,
F#7sus4 F#7(addB)
C#m7 C#m7 F# \/ \/
lying in the ....

E5 F#9 G9 G#9
e:-------------------------------------------------------------------|
B:--5---------9--10--11\---------------------------------------------|
G:--4-----x---9--10--11\---------------------------------------------|
D:--2-----x---8---9--10\---------------------------------------------|
A:--2-----x---9--10--11\---------------------------------------------|
E:-------------------------------------------------------------------|

Keyboard arr. for guitar: play 16 times

e:--9-9--9-------9-11--------|
B:---------11--9-------------|
G:o-------------------------o|
D:o-------------------------o|
A:---------------------------|
E:---------------------------|


---------------

[Play this whole next section twice]


The keyboard plays this whole thing two times:

e:-------------------------|-----------------------------------------|
B:--------------------7~~--|-----------------------------------------|
G:---------6---6--8--------|-----------6---6--8~~--------------------|
D:---6--8------------------|----6---8--------------------------------|
A:-------------------------|-----------------------------------------|
E:-------------------------|-----------------------------------------|

While the guitar plays this freely:

e:--11-11--11--11--11-11-11-11-11------------------------------------|
B:--11-11--11--11--11-11-11-11-11------------------------------------|
G:--11-11--11--11--11-11-11-11-11------------------------------------|
D:--13-13--13--13--13-13-13-13-13------------------------------------|
A:-------------------------------------------------------------------|
E:-------------------------------------------------------------------|

Then:

e:-----------------------------|-------------------------------------|
B:--13-13---13-13-13-13-13-13--|-------------------------------------|
G:o-13-13---13-13-13-13-13-13-o|--11-11-11-11-------11-11-11-11------|
D:o-13-13---13-13-13-13-13-13-o|--11-11-11-11-------11-11-11-11------|
A:--11-11---11-11-11-11-11-11--|---9--9--9--9--------9--9--9--9------|
E:-----------------------------|-------------------------------------|

---------------

And the mercury is rising; ....
C#m7 C#m7
Feel red. Still, ....
F#7sus4 F#7(addB) E
C#m7 C#m7 C#m7 F# \/ \/ \/
You see black 'n' w....

E E E C#m7
not blue.
C#m13 C#m7
e:--9--9--9--9--9--9---9--9--9--9----9~------------------------------|
B:-12-12-12-12-12-12--11-11-11-11----9~------------------------------|
G:--9--9--9--9--9--9---9--9--9--9----9~------------------------------|
D:--9--9--9--9--9--9---9--9--9--9----9~------------------------------|
A:-11-11-11-11-11-11--11-11-11-11---11~------------------------------|
E:-------------------------------------------------------------------|

[C#m7 freely] F#
I'm thinkin' about the ....

F#7sus4 a few times, then F#7(addB)

E
C#m7 [Fill 1] x1
Well I said I'm ...

[Fill 1] - palm-muted and with echoed repeats

e:--------------------|
B:------9-9-----------|
G:---9------9---------|
D:--------------------|
A:--------------------|
E:--------------------|

C#m7 freely
F# F#7(addB)
Thinkin' about ....

C#m7 C#m7 F#7(addB)
I think about it, I ....!


Red Sector A

Red Sector A

Jimmy Pena - jimmy@protected.olga.net

| - not a standard bar line; just used to separate music
~ - vibrato or held note
x - percussive note with no pitch; muted note
. - staccato; mute the note immediately after striking it
h - hammer on
p - pull off
s - slide
t - trill; play the note(s) indicated rapidly and repeatedly
/ - slide up from infinity
\ - slide down into infinity
<5> - natural harmonic (or pinch harmonic)
3(b5) - bend note up from 3rd to 5th fret pitch
3(b5r3) - bend note from 3rd to 5th fret pitch, then return to 3rd
fret
o \_
o / repeat sign (always look for these!)

[x35553] - fret box; this is a C chord - this is the same as standard
tablature, only turned on its side. Tilt your head clockwise to
read.

[Intro]

Dm7sus4 Dm9 Dm9
e:-15----12---12-12---12-|-15~----|--12-12--------12-------12-12-----|
B:-13----13---15-15---13-|-13~----|--13-13---15---13--15---13-13--15~|
G:-14----14---14-14---14-|-14~----|--14-14---14---14--14---14-14--14~|
D:-12---------12-12------|-12~----|--12-12---12----------------------|
A:-----------------------|--------|----------------------------------|
E:-----------------------|--------|----------------------------------|
Dm7 Dm9 Dm7 Dm7sus4 Dm7
e:-5-5---5--------------5--5--------|--5-------8-----5-5-------------|
B:-6-6---5----5----5-5--6--6----8~--|--6---8---6--6--6-6--6~---------|
G:-5-5---5----7----7-7--5--5----5~--|--5---5---5--5--5-5--5~---------|
D:-------7----7----7-7--7--7----7~--|--7---7---7--7--7-7--7~---------|
A:----------------------------------|---------------------5~---------|
E:----------------------------------|--------------------------------|
F5 Am
e:-----|--12~---|---15--15----12---12--12----15~---|--12----12-------|
B:-----|--13~---|---13--13----13---15--13----13~---|--13----15-------|
G:10~--|--14~---|---14--14----14---14--14----14~---|--14----14-------|
D:10~--|--14~---|---12-----------------------12~---|--12----0--------|
A:-8~--|--12~---|----------------------------------|-----------------|
E:-----|--------|----------------------------------|-----------------|
Dsus2 Dm9
e:--5-----------|---0----0----5~-----|---0----0----5~----------------|
B:--6----8~-----|---3----1----5~-----|---3----1----5~----------------|
G:--5----5~-----|---2----2----5~-----|---2----2----5~----------------|
D:--7----7~-----|---0----0----7~-----|---0----0----0~----------------|
A:--------------|--------------------|-------------------------------|
E:--------------|--------------------|-------------------------------|

[Riff 1]

e:--0----0----5~-----------------------------------------------------|
B:--3----1----5~-----------------------------------------------------|
G:--2----2----5~-----------------------------------------------------|
D:--0----0----0~-----------------------------------------------------|
A:-------------------------------------------------------------------|
E:-------------------------------------------------------------------|

[Riff 2]
F5 A5
e:--0----0-------------5---5--|--0----0----5~------------------------|
B:--3----1-----6-------5---5--|--3----1----5~------------------------|
G:--2----2-----5-------2---2--|--2----2----5~------------------------|
D:--0----0-----3-------2---2--|--0----0----0~------------------------|
A:-------------------------0--|--------------------------------------|
E:----------------------------|--------------------------------------|

[Riff 3]

e:-------------------------5-5-5-5-5---------------------------------|
B:-------------------------5-5-5-5-5---------------------------------|
G:-------------------------2-2-2-2-2---------------------------------|
D:--2---0-0--3--0---2-2----2-2-2-2-2---------------------------------|
A:-------------------------0-0-0-0-0---------------------------------|
E:-------------------------------------------------------------------|

[Riff 4]
F
e:-------------------------------------------------------------------|
B:-------------0---------------0-------------------------------------|
G:--2--------2---2-----------2---2---0-------------------------------|
D:--3------3---------------3-------3---------------------------------|
A:--3----3---------3----3--------------------------------------------|
E:--1--1----------------1--------------------------------------------|

Song progression:

[Intro] x1

[Riff 1] x1 /w lyrics:

All that we can do is ...

[Riff 2] x1 /w lyrics:

All that we can do to help ...

[Am] [Riff 3] x2

[Riff 3] x2 /w lyrics:
G~
Ragged lines of ragged grey. ...
G~ [Riff 3] x1
Shouting guards and smoking guns will ....

(strum) A5 Em
I clutch the wire ....

[Riff 4] x1 /w lyrics:

A wound that will not heal. A ....

(strum) Am Em
Hoping that the ...

[Riff 4] x1 /w lyrics:

Hoping that tomorrow ...

[Riff 3] x2

[Riff 3] x2 /w lyrics:
G~
Sickness to insanity, ...

G~ [Riff 3] x1
Days and weeks and months go by. Don't ....

(strum) A5 Em
I hear the sound of ...

[Riff 4] x1 /w lyrics:

Are the liberators here? Do I ....

(strum) Am Em
For my father and my ...

F F F [Riff 1] x1
But I must help my mother ...

Repeat this part TWICE:

[Riff 1] x1 then [Riff 2] x1 /w lyrics:

Are we the last ones left alive? ....

Then go into the [Guitar Solo]:

Let the harmonics ring; notes with a '!' represent vibrato
instead of a held note; also use echo and a harmonizer set to a
perfect
5th.

Am
e:-----------|------------|---------------|--------------------------|
B:-----------|------------|---------------|--<12>~-------------------|
G:-----------|-<12>~------|---------------|------<12>~---------------|
D:-<7>~------|------<12>~-|-<7>~----------|----------<12>~-<12>~-----|
A:-<7>~------|------------|-<7>~----------|--------------------------|
E:-----<12>!-|------------|-------<12>~---|--------------------------|

e:---------------|------------|--------------------|-----------------|
B:---------------|-<7>~-------|--------------------|-<7>~------<7>~--|
G:----------<5>~-|------<7>!--|---------------<5>~-|------<7>~-------|
D:------<5>~-----|------------|-----<5>~-<5>~------|-----------------|
A:-<4>~----------|------------|-<4>~---------------|-----------------|
E:---------------|------------|--------------------|-----------------|
G Am
e:-----------------------|------------------------------12-12-12-12--|
B:-12-----12-13----15----|-13-13-13-13-15--13--12--13---13-13-13-13--|
G:-12--------------------|-------------12--14--12--14---14-14-14-14--|
D:-12--12-------12----12-|-------------12----------------------------|
A:-10--------------------|-------------------------------------------|
E:-----------------------|-------------------------------------------|
D
e:-----------12------------------|----------7--7--5-----7--7--5------|
B:-15p13--15-----15-13-15-13-13--|--5s7--5--8--8--7--5--8--7--7------|
G:---------------12-12-12----12--|--5s7--5--7--7--7--5--7--7--7------|
D:---------------------------14--|--5s7--5-----------5---------------|
A:-------------------------------|-----------------------------------|
E:-------------------------------|-----------------------------------|
G Am C/G F
e:-----------12---12-------------12--12--|---------------------------|
B:--12-13-12-15---15---10---10---13--12--|----------------<12>~-13~~-|
G:--12-12-12-12---12---10---10---12--12--|------5s9---<12>~-----14~~-|
D:--12-12-12-12---12---10---10-----------|----7-----------------15~~-|
A:---------------------------------------|--7------------------------|
E:---------------------------------------|---------------------------|
Am C/G F Am C/G
e:------------------------------------------|------0-----3-3-3-3-----|
B:-1---------<12>~-------10~-----13--13p12--|--1---1--1--1-1-1-1-----|
G:-----2s5--------<12>~--10~----------------|--2---2--2--0-0-0-0-----|
D:---2-------------------10~----------------|--2---2--2--2-2-2-2-----|
A:------------------------------------------|------------------------|
E:------------------------------------------|------------------------|
F G Am
e:--3--0-----0--|--3-----3--3---|--5-5-5-5-5-5-5~\--|-0---0---0------|
B:--1--1--3--1--|--3-----3--3---|--3-3-3-3-3-3-3~\--|-1---3---1------|
G:--0--0--0--0--|--0--0--0--0---|--0-0-0-0-0-0-0~\--|-2---2---2------|
D:--2--2--3--3--|--0--0--0--0---|--0-0-0-0-0-0-0~\--|-2---2---2------|
A:--------------|--2-----2--2---|-------------------|-0---0---0------|
E:--------------|--3-----3--3---|-------------------|----------------|

e:--0--0--0--|--0---0-----0--|--0---0-----0--|-----------------------|
B:--1--3--1--|--1---3--0--1--|--1---3--0--1--|-----------------------|
G:--2--2--2--|--2---2--2--2--|--2---2--2--2--|-----------------------|
D:--2--2--2--|--2---2--2--2--|--2---2--2--2--|-----------------------|
A:--0--0--0--|--0---0-----0--|--0---0-----0--|-----------------------|
E:-----------|---------------|---------------|-----------------------|

(strum) A5 Em
I hear the sound of ...

[Riff 4] x1 /w lyrics:

Are the liberators here? Do ...

(strum) Am Em
For my father and my ...

F F F G5 [x5578x]
But I must help my ...

[Riff 1] x1

[Riff 1] x1 then [Riff 2] x1 /w lyrics:

Are we the last ones left alive....

[Riff 1] x1 then [Riff 2] x1 /w lyrics:

Are we the last ones left alive....

[Outro]:
Dm9
Dm9 Dm7 Dm7sus4 Dm9 Dm7sus4
e:-12--12----12-----------15~---|-12-12-12--12--12--15--12-12-12-----|
B:-13--13----15---13--13--13~---|-13-13-13--15--13--13--13-13-13-15--|
G:-14--14----14---14--14--14~---|-14-14-14--14--14--14--14-14-14-14--|
D:----------------15--12--12~---|-15-15-15----------12--15-15-15-12--|
A:------------------------------|------------------------------------|
E:------------------------------|------------------------------------|

Dm7 Dm9 Dm7sus4 F Am Dm7sus4
e:--5--5-----0--0--0---5--5-----------|---------12~------------------|
B:--6--6-----1--3--1---6--6----8~-----|-10~-----13~-------8~---------|
G:--5--5-----2--2--2---5--5----5~-----|-10~-----14~-------5~---------|
D:-----------------------------7~-----|-10~-----14~-------7~---------|
A:------------------------------------|--8~-----12~----5--5~---------|
E:------------------------------------|------------------------------|


RIVENDELL

Rivendell by RUSH: From the album Flight by Night

Transcribed by Kevin McFadden



+-----------|-----------|-------_-_-------|--/-2---||--5--------|--5--
------+
+--3-----3--|--2-----2--|--1---0-1-0------|--\-3---||------3----|--3--
-3----+
+*----0-----|----0------|----0-------2-0--|--/-2---||*---4---4--|----
4---4--+
+*------0---|------0----|-----------------|--\-0---||*-0--------|-----
------+
+--2-----2--|--1-----1--|--0--------------|--/-0---||-----------|-----
------+
+-----------|-----------|-----------------|--------||-----------|-----
------+



+--5--------|--5-----5--|--3--------|--3--------|--3--------|--3-----
3--+
+------3----|--3---3----|----0---0--|----0---0--|----0---0--|----0----
--+
+----4---4--|----4------|------5----|--5---5----|------5----|--5---5--
--+
+--0--------|--------0--|--0--------|-----------|--0--------|--------
0--+
+-----------|-----------|-----------|-----------|-----------|---------
--+
+-----------|-----------|-----------|-----------|-----------|---------
--+



+--3--------|--3--------|--0--------|--0-----0--|--0--------|---------
--+
+----0---0--|----0------|----1---1--|----1------|----1------|--------
1--+
+------0----|------0----|------0----|------0----|------0----|------0--
--+
+--2--------|--------2--|--3--------|--------2--|--------2--|----2----
--+
+-----------|-----------|-----------|-----------|--3--------|--3------
--+
+-----------|-----------|-----------|-----------|-----------|---------
--+

X2 X2
_ _
+--2------2-3-2----|---/-2---|----||-------------||-------------------
--+
+----3----------3--|---\-3---|----||-------------||-------------------
--+
+------2-----------|---/-2--*|---*||------------*||-------------------
--+
+--0---------------|---\-0--*|---*||------------*||-------------------
--+
+------------------|---/-0---|----||-------------||-------------------
--+
+------------------|---------|----||-------------||-------------------
--+


X2
+--3---------|--3--------|--3--------|--\--0---|--1--------|--3-----3-
-+
+*----3---3--|----3------|----3------|--/--2--*|----1---1--|----3-0---
-+
+------0-----|------0----|------0----|--\--2---|------2----|----------
-+
+*-----------|--------0--|--------0--|--/--2--*|--3--------|--0-------
-+
+--3---------|--2--------|-----------|--\--0---|-----------|----------
-+
+------------|-----------|--3--------|---------|-----------|----------
-+



_ _
+--2---2-3-2----|--\--2--|--0--------|--0--------|--3--------|--\--0--
+
+------------3--|--/--3--|----1---1--|----1------|----3------|--/--2--
+
+---------------|--\--2--|------2----|------0----|------0----|--\--2--
+
+--0-0----------|--/--0--|--3--------|--------2--|--------0--|--/--2--
+
+---------------|--\--0--|-----------|--3--------|-----------|--\--0--
+
+---------------|--------|-----------|-----------|--3--------|--------
+

_ _
+-----------|-----------|-------_-_-------|--/-2--|--2-2-2-3-2--------
+
+--3-----3--|--2-----2--|--1---0-1-0------|--\-3--|------------3------
+
+*----0-----|----0------|----0-------2-0--|--/-2--|--------------2----
+
+*------0---|------0----|-----------------|--\-0--|----------------0--
+
+--2-----2--|--1-----1--|--0--------------|--/-0--|-------------------
+
+-----------|-----------|-----------------|-------|-------------------
+



+---------------|------------3--|-----+
+---------------|------3---3----|-----+
+------------0--|----0---0------|--0--+
+------0---0----|--0------------|-----+
+----2---2------|---------------|-----+
+--3------------|---------------|--3--+
===== ===== ===== =====
3 3 3 3

KEY:
_ _
2 3 2 : Hammer on, Pull off

===== : Triplet
3

\
/
\ : Strum slowly
/
\
/

Roll The Bones

Roll The Bones
by Rush


---2--2--2--2--2--0--0--0--------------------2--2--2--2--2--0--0--0--
---3--3--3--3--3--3--3--3--------------------3--3--3--3--3--3--3--3--
---2--2--2--2--2--2--2--2--------------------2--2--2--2--2--2--2--2--
---------------------------------------------------------------------
---------------------------------------------------------------------
---------------------------------------------------------------------

Vocals start here
---2--2--2--2--2--0--0--0-----------------3---------------------------
---3--3--3--3--3--3--3--3-----------------3---------------------------
---2--2--2--2--2--2--2--2-----------------2---------------------------
------------------------------------------2---------------------------
------------------------------------------0---------------------------
----------------------------------------------------------------------


---3---------------------------------------2--2--2--2--2--0--0--0---
---3---------------------------------------3--3--3--3--3--3--3--3---
---2---------------------------------------2--2--2--2--2--2--2--2---
---0----------------------------------------------------------------
---0----------------------------------------------------------------
--------------------------------------------------------------------


---2--2--2--2--2--0--0--0-----------------3------------------------
---3--3--3--3--3--3--3--3-----------------3------------------------
---2--2--2--2--2--2--2--2-----------------2------------------------
------------------------------------------2------------------------
------------------------------------------0------------------------
-------------------------------------------------------------------


---3------------------------------------2--2--2--2--2--0--0--0----
---3------------------------------------3--3--3--3--3--3--3--3----
---2------------------------------------2--2--2--2--2--2--2--2----
---0--------------------------------------------------------------
---0--------------------------------------------------------------
------------------------------------------------------------------


---2--2--2--2--2--0--0--0------
---3--3--3--3--3--3--3--3------
---2--2--2--2--2--2--2--2------
-------------------------------
-------------------------------
-------------------------------


Pre-Chorus

---8--8--8--8--8----8--8----8--8-------0--0--0--1--1----2----3--3--3--
3--3/8--
---8--8--8--8--7----7--5----5--7-------3--3--3--3--3----3----3--3--3--
3--3/8--
----------------------------------------------------------------------
--------
----------------------------------------------------------------------
--------
----------------------------------------------------------------------
--------
----------------------------------------------------------------------
--------


---8--8--8--8--8----8--8----8--8--------5--5--5--5--5---5--5--5--5--5-
-5/7--7--
---8--8--8--8--7----7--5----5--7--------6--6--6--6--6---6--6--6--6--6-
-6/8--8--
----------------------------------------5--5--5--5--5---5--5--5--5--5-
-5/7--7--
----------------------------------------------------------------------
---------
----------------------------------------------------------------------
---------
----------------------------------------------------------------------
---------


repeat that 3X

Chorus

Em G5 C
Why are we here? Because ....

C
Roll the ...

Em G5 C
Why does it happen? Because it ...

C
Roll the ....


solo

-------------------------------------------------------------------
--17>(20)=====>(18)===>(17)--15-17\---12>13>14>13>12------12-------
------------------------------------------------------14------14\--
-------------------------------------------------------------------
-------------------------------------------------------------------
-------------------------------------------------------------------

|- w/ bar.---|
-------------------------------------------8>7>8\/8>7--7>8/10\/10/12--
-------7--8--10>8>7-----7---------------7-----------------------------
--7>9----------------9-----9>7-----7>9--------------------------------
--------------------------------9-------------------------------------
----------------------------------------------------------------------
----------------------------------------------------------------------

--12------12------12-----------------------12------12--15vvvvvv--
------10------10------10/12\---12--13--15------15----------------
-----------------------------------------------------------------
-----------------------------------------------------------------
-----------------------------------------------------------------
-----------------------------------------------------------------


|- n.h.
--15>(17)--15vvvvvv--12--15--15>(17)--15vvvvvv\---------
-------------------------------------------------"12"\--
--------------------------------------------------------
--------------------------------------------------------
--------------------------------------------------------
--------------------------------------------------------


during "rap";

-------------------------------22>(23)>(22)>(23)\-----------
--16\12-----------------------------------------------------
------------------------------------------------------------
------------------------------------------------------------
------------------------------------------------------------
------------------------------------------------------------

|-- harm.
-----------------------------------------12-------------------
----"5"vvvvvvvvvvvvvvvvvvvvv-----------------15>12-------12---
--------------------------------------------------------------
--------------------------------------------------------------
--------------------------------------------------------------
--------------------------------------------------------------


--12-----------------------------------
------15>0---15--12>15>12\11>(12)------
---------------------------------------
---------------------------------------
---------------------------------------
---------------------------------------


chorus break.

-------------12------12-----------15-----------12-----------12--------
---
---12---15-------15------15>(17)------15>(17)------15>(17)------
15>(17)--
----------------------------------------------------------------------
---
----------------------------------------------------------------------
---
----------------------------------------------------------------------
---
----------------------------------------------------------------------
---


---12-----------12-----------------------------------20--18---
-------15>(17)-------15>(17)>15vvv----------------------------
--------------------------------------------------------------
--------------------------------------------------------------
--------------------------------------------------------------
--------------------------------------------------------------

----------------------------------
---------12--12-------------------
--12>14----------14--12--12vvvv---
----------------------------------
----------------------------------
----------------------------------

Show Don't Tell

Guitar tab for Show Don't Tell
Music and Lyrics by Lee, Lifeson, and Peart
Recorded on Atlantic Records release Presto

Transcribed in Guitar (World / School)?, Early 1990
Keyed in by Tony Zimmermann <anthonyz@protected.olga.net>


-3----------------------------------------------3----8-8-8-7----------
--
-3------/8--7--5--5-----------------------------3----8-8-8-7--5-5-7-5-
--
-2-//---/8--7--5--5-----------------------------2-//-7-7-7-7--5-5-7-5-
--
-2----------------------------------------------2----7-7-7-7----------
--
-0------------------3--2------------0---3---0-------------------------
--
--------------------------3--2~--3----(1/4)---------------------------
--


---------------------------------|----------------------------------
---------------------------------|----------------------------------
------2---0-----------0--0----0--|-----2-------0-------5---5--------
----2---2---2---2---4-------0---0|---2---2-------3---5----------5---
--0-----------3---5--------------|-0---------3-----3----------5---5-
--------------------------3------|---------1----------------3-------

let open G ring
---------------------------------|--3------8-----8-----10-----------
---------------------------------|--3-//---8-//--8-//--10-//--------
-----2---0-----------0-----------|--2------7-----7-----9------------
---2---2---2---2---4-------------|----------------------------------
-0-----------3---5---------------|----------------------------------
---------------------------------|----------------------------------
^ This may not be
right,
but sounds close
enough.

Chords for verses: Bridge chords:
--5---------3-----------|-/-5------------------3--|-3----5---------
--5---------3-----------|-\-5------------------3--|-3----8---------
--7---------5-----------|-/-7----------5-------0--|-0----5---------
--7---------5-----------|-\-5----7--3--5--5----2--|-2----7---------
--5---------3-----------|-/-7----7--3--3--5----0--|-0----5---------
------------------------|-\-5----5--1-----3-------|----------------
Strum
Alex plays with
different
A and D (m7sus4)
voicings.
This is my best
guess.
fade (2x) Solo:
-3-----------|----------------------------------20--20--17-H-20-P-17--
--17--
-3-//--------|----------------20--19--17-19-17--(F)------------------
20-----
-2-----------|---<5>~~~\----------------------------------------------
------
-------------|--------------------------------------------------------
------
-------------|--------------------------------------------------------
------
-------------|--------------------------------------------------------
------

----------------------------------------------------------------------
----<5>\
-20---20--17-H-20-P-17------------------------------------------------
----<5>\
-(F)-------------------19-17-17-19-17~~~----16~~~~--------------------
----<5>\
----------------------------------------------------------------------
----<5>\
----------------------------------------------------3--2----------0--
3--0-----
----------------------------------------------------------3--2~-3--
(1/4)------

< > : Natural Harmonic
(F) : Full Bend (1/2),(1/4) tone value of bend
~~ : Vibrato
// : Repeat same chord
/or\: Slide
< >\: Harmonic with tremolo dive


Soliloquy (part VI of 2112)

Soliloquy (part VI of 2112)
RUSH, of the 2112-album

(Just listen to the song, and you'll soon find a usable way of
picking/strumming the chord. NB! The G/B has an added D on 2.string)

| D | C G/B | Dm/F Em7 | D | x 2

D C G/B
The sleep is ...
Dm/F Em7 D
The dream is ...
C G/B Dm/F Em7 D
I heave a sigh and sadly ...
Am7 C/G F C G
I wish that it might come ...
Am7 C F
C G
Just think of what my life might be in ...
Am7 C F
C G
I don't think I can carry on ....

[Guitar Solo, chords: | Am7 | C | F | C G | repeated 5 times]

Am7 C F5 E5
My spirits are low. In the ....

Chords :

EADGBA
D : xx0232
C : x32010
G/B : x20033
Dm/F : xx3231
Em7 : 022030
Am7 : x02010
C/G : 332010
F : 133211
G : 320003
F5 : 133xxx
E5 : 022xxx


The Spirit Of Radio

Rush - "The Spirit Of Radio"
Transcribed by Damon Schmidt.


Key to Notation: T = Tap, P = Pull-off, H = Hammer-on

Main Riff-

T P P H T P P H T P P H T P P P H
---^--^--^--^---^--^--^--^--^--^--^--^--^--^--^--^----
-7--5--3--5--10--5--3--5--7--5--3--5--9--7--5--3--5---
------------------------------------------------------
------------------------------------------------------
------------------------------------------------------
------------------------------------------------------

T P P H T P P H T P P H T P P P H
---^--^--^--^---^--^--^--^--^--^--^--^--^--^--^--^----
-7--5--3--5--10--5--3--5--7--5--3--5--9--7--5--3--5---
------------------------------------------------------

------------------------------------------------------
------------------------------------------------------
------------------------------------------------------

Repeat Main Riff 7 Times

While Guitar 1 T P P H T P P H T P P H T P P P H
is repeating ---^--^--^--^---^--^--^--^--^--^--^--^--^--^--^--^-
---
the main riff-> -7--5--3--5--10--5--3--5--7--5--3--5--9--7--5--3--
5---
Guitar 2 is ---------------------------------------------------
---
playing a full ---------------------------------------------------
---
extension E5 ---------------------------------------------------
---
a la Tom Sawyer ---------------------------------------------------
---
Ascending patt. Repeat
4 times
'Tom Sawyer' E5 0 -----------------------|-----------------------
-----
5 -----------------------|-----------------------
-----
4 -----------------------|-----------------------
-----
2 --4--2--0-----0--------|-----------------------
---2-
2 -----------3-----3--2--|--------------0--2--3--
4----
0 -----------------------|--0--2--3--4-----------
-----

E B5 G#5 A5
B5
------|-----------|-----------------------|---------------------|-----
--------
------|-----------|-----------------------|---------------------|-----
--------
--1---|-----------|-----------------------|---------------------|-----
--------
--2---|-----9-\---|-----6-6-6-6-6-6-6-6---|-----7-7-7-7-7-7-7---|-----
9-------
--2---|-----9-\---|-----6-6-6-6-6-6-6-6---|-----7-7-7-7-7-7-7---|-----
9-------
--0---|-----7-\---|-----4-4-4-4-4-4-4-4---|-----5-5-5-5-5-5-5---|-----
7-------

Pre-verse riff

E B5 G#5 A5
--------0---------------0---------------0------------------------
--------0--0------------0--0---------------0---------------------
--1---------------4---------------------------------2-------P----
--2---------------4---------------6-----------------2-------^----
--2------------0--2--2------------6-----------------0--0--4--2---
--0--0-------------------------0--4--4--------4--4---------------

Verse riff one(times 2) "Begin the day..."

E B5 G#5 A5
--------0---------------0---------------0------------------------
--------0--0------------0--0---------------0---------------------
--1---------------4---------------------------------2--2--4------
--2---------------4---------------6-----------------2--2--4------
--2------------0--2--2------------6-----------------0--0--2------
--0--0-------------------------0--4--4--------4--4---------------

Repeat Pre-verse section once then-

Verse riff two(times 2) "Off on your way..."

--------4--0---------2--2---------4--0----------------
-----0--5--0------0--0--4---------4--0----------------
--1------------4-------------------------2--2--4------
--2------------4------------6------------2--2--4------
--2------------2------------6------------0--0--2------
--0-------------------------4--4----------------------

End Verse riff

--------0---------------0---------------------------------------------
--------
--------0--0------------0--0------------------------------------------
--------
--1---------------4---------------------------------------------------
--------
--2---------------4-----------------6--6--6--6--6--6--6--6--7--7--7--
7--7--9--
--2------------0--2--2--------------6--6--6--6--6--6--6--6--7--7--7--
7--7--9--
--0--0------------------------4--0--4--4--4--4--4--4--4--4--5--5--5--
5--5--7--

Mute all notes on the staff below...

---------------------- Play this muted part twice, then repeat(14
times)
--7--5--3---9--7--5--- while the other gtr plays the Main riff(also
14 times)
----------------------
----------------------
----------------------
----------------------

"All this machinery..."
Let all chords ring freely(times 4)

E B5 G#5 A B
--0---0------0------2---2------2------4---4------4------0---0---2-----
--------
--1---1------1------4---4------4------4---4------4------2---2---4-----
--------
--1---1------1------4---4------4------5---5------5------2---2---4-----
--------
--2---2------2------4---4------4------6---6------6------2---2---4-----
--------
--2---2------2------2---2------2------6---6------6------0---0---2-----
--------
--0---0------0------------------------4---4------4--------------------
--------

Repeat End verse riff, repeat muted part(times 2), repeat muted part
(times 14) and Main riff(times 14), then-

Repeat the following measure twice

E D/F# E/G#
--0---0---0--0--0-------------------0---0---0--0--0-------------------
--------
--0---0---0--0--0--3---3---3--3--3--0---0---0--0--0--3---3---3--3--3--
--------
--1---1---1--1--1--2---2---2--2--2--4---4---4--4--4--2---2---2--2--2--
--------
--2---2---2--2--2--0---0---0--0--0--2---2---2--2--2--0---0---0--0--0--
--------
--2---2---2--2--2--x---x---x--x--x--x---x---x--x--x--x---x---x--x--x--
--------
--0---0---0--0--0--2---2---2--2--2--4---4---4--4--4--2---2---2--2--2--
--------

Repeat Pre-verse riff once , End Verse riff once
Repeat Main riff twice, then a descending scale that
I haven't tried to figure out yet, then the ascending
patt. 4 times, then-

--4---4---5---7-------------------------------------------------------
--------
--5---5---5---5-------------------------------------------------------
--------
----------------------------------------------------------------------
--------
----------------------------------------------------------------------
--------
----------------------------------------------------------------------
--------
----------------------------------------------------------------------
--------
this pattern varies slightly times 3, Ascending patt, times 2, then
above
pattern with variations, then Ascending patt. times two, then solo,
Ascending
patt, times 5, Main riff once , then-

--0-------------------------------------------------------------------
--------
--0-------------------------------------------------------------------
-------
--1-------------9\----------------------------------------------------
--------
--2-------------9\----------------------------------------------------
--------
--2-------------7\----------------------------------------------------
--------
--0-------------------------------------------------------------------
--------

Sorry, no solo yet, but soon.

Everything should be fairly obvious. When I have more time I'll tab
some more stuff- the complete Bastille Day with some of the solo,
the
Natural Science solo, Entre Nous, complete The Trees, Closer To The
Heart, Freewill, Show Don't Tell, Working Man, 2112, maybe more too
:)


Rush - Subdivisions

Rush - Subdivisions

Jimmy Pena - jimmy@protected.olga.net

| - not a standard bar line; just used to separate music
~ - vibrato or held note
x - percussive note with no pitch; muted note
. - staccato; mute the note immediately after striking it
h - hammer on
p - pull off
s - slide
/ - slide up from infinity
\ - slide down into infinity
<5> - natural harmonic (or pinch harmonic)
3(b5) - bend note up from 3rd to 5th fret
3(b5r3) - bend note up from 3rd to 5th fret, then return to 3rd fret
o \_
o / repeat sign (always look for these!)

Song progression:

Keyboard/Synth intro (arranged for guitar)
[244322]
F# F# F# F# F# F#
F# F# F# F# F# F#

Guitar enters:
F# F# F# F# F# F#
F# F# F# F# F# F#

F# F# F# F# F# F#
F# F# F# F# F# F#

F# F# F# F# F# (/w 2 4 2 4 pattern below)
F# F# F# F# F# ( " " " )

[x24432][x0222x]
Bm Bm A A Bm Bm A A Bm Bm A A

[355433]
G A Bm G A Bm

Guitar/Keyboard tradeoff:
G G A A Bm Bm Bm Bm
G G A A Bm

F# F# F# F# F# |---------------|
|---------------|
|---------------|
|---4---4---4---|
|---------------|
|-2---2---2---2-|

F# F# F# F# F# F# F# F#
Sprawling on the ...

Bm Bm Bm Bm A A A A
In geometric ...

Bm Bm Bm Bm A A A A
An insulated ....

Bm Bm Bm Bm A A A A
In between the ...

G G A A Bm Bm Bm Bm
And the far ...

G G A A

F# F# F# F# F# |---------------|
|---------------|
|---------------|
|---4---4---4---|
|---------------|
|-2---2---2---2-|

F# F# F# F# F# F# F# F#
Growing up it all ...

Bm Bm Bm Bm A A A A
Opinions ...

Bm Bm Bm Bm A A A A
The future ....

Bm Bm Bm Bm A A A A
Detached and s...

G G A A Bm Bm Bm Bm
In the mass ...

G G A A Bm Bm Bm Bm G G A A Bm Bm Bm Bm
Nowhere is the dreamer or the ...

Repeat twice:

e:-----------------------------------------------------------|
B:-----------------------------------------------------------|
G:--------4--4---2---4---4-----------------------------------|
D:------0------0---0---0-------------------------------------|
A:----2------------------------------------------------------|
E:--3--------------------------------------------------------|

Above riff x11 /w lyrics:

Subdivisions -...
Keyboard interlude arr. for guitar:

e:-----------------------------------------------------------|
B:----------------------------------------------15-15-14-12--|
G:-------------16-14-11---14---------------------------------|
D:-9~--11--12----------------12-11--9~--11--12---------------|
A:-----------------------------------------------------------|
E:-----------------------------------------------------------|

e:-----------------------------------------------------------|
B:------------------------------------------12---------------|
G:-14---11-----11--14--------------------14----11--14--------|
D:----------14--------12--11--9~--11--12---------------------|
A:-----------------------------------------------------------|
E:-----------------------------------------------------------|

e:-----------------------------------------------------------|
B:------------------------------------15--15-14-12-----------|
G:-11h14p11s9--------------------------------------14--11----|
D:------------11--11h12p11s9~--11--12------------------------|
A:-----------------------------------------------------------|
E:-----------------------------------------------------------|

e:-----------------------------------------------------------|
B:-----------12~---------------------------------------------|
G:----11--14-------------------------------------------------|
D:-14--------------------------------------------------------|
A:-----------------------------------------------------------|
E:-----------------------------------------------------------|


F# F# F# F# F# F#

F# F# F# F# F# |---------------|
|---------------|
|---------------|
|---4---4---4---|
|---------------|
|-2---2---2---2-|

F# F# F# F# F# F# F# F#
Drawn like moths ...

Bm Bm Bm Bm A A A A
The timeless old a...,

Bm Bm Bm Bm A A A A
Cruising for ....

Bm Bm Bm Bm A A A A
Lit up like ....

G G A A Bm Bm Bm Bm
Just to feel the ...

G G A A

F# F# F# F# F# |---------------|
|---------------|
|---------------|
|---4---4---4---|
|---------------|
|-2---2---2---2-|

F# F# F# F# F# F# F# F#
Well some will sell their ....

Bm Bm Bm Bm A A A A
Or lose the ...

Bm Bm Bm Bm A A A A
Get caught in ...

Bm Bm Bm Bm A A A A
And start to dream ...

G G A A Bm Bm Bm Bm
To relax their ...

G G A A Bm Bm Bm Bm G G A A Bm Bm Bm Bm
Somewhere out of a memory of ....

Repeat twice

e:-----------------------------------------------------------|
B:-----------------------------------------------------------|
G:--------4--4---2---4---4-----------------------------------|
D:------0------0---0---0-------------------------------------|
A:----2------------------------------------------------------|
E:--3--------------------------------------------------------|

Above riff x7 /w lyrics:

Subdivisions ...


Keyboard interlude arr. for guitar:

e:-----------------------------------------------------------|
B:----------------------------------------------15-15-14-12--|
G:-------------16-14-11---14---------------------------------|
D:-9~--11--12----------------12-11--9~--11--12---------------|
A:-----------------------------------------------------------|
E:-----------------------------------------------------------|

e:-----------------------------------------------------------|
B:------------------------------------------12---------------|
G:-14---11-----11--14--------------------14----11--14--------|
D:----------14--------12--11--9~--11--12---------------------|
A:-----------------------------------------------------------|
E:-----------------------------------------------------------|

e:-----------------------------------------------------------|
B:------------------------------------15--15-14-12-----------|
G:-11h14p11s9--------------------------------------14--------|
D:------------11--11h12p11s9~--11--12------------------------|
A:-----------------------------------------------------------|
E:-----------------------------------------------------------|

e:-----------------------------------------------------------|
B:--15-14---12h14p12-----------------------------------------|
G:--------------------14~------------------------------------|
D:-----------------------------------------------------------|
A:-----------------------------------------------------------|
E:-----------------------------------------------------------|

[Guitar Solo]

e:-----------------------------------------------------------|
B:-----------------------------------------------------14-15-|
G:-7--9--11---9--7--9~--4--6--2~\--12-14-16--14-12-14~-------|
D:-0~~~~~~~--------------------------------------------------|
A:-----------------------------------------------------------|
E:-----------------------------------------------------------|

e:-----------------------------------------------------------|
B:---<5>-----------------------------------------------------|
G:-------<5>-<4>---------------------------------------------|
D:---------------<5>-<4>-<5>---------------------------------|
A:---------------------------<5>-----------------------------|
E:-----------------------------------------------------------|

ad lib
e:--7-7-7-8-8-7-7-8-8~---------------------------------------|
B:--8-8-8-8-8-8-8-8-8~---------------------------------------|
G:--7-7-7-7-7-7-7-7-7~---------------------------------------|
D:-----------------------------------------------------------|
A:---------------------------x\------------------------------|
E:---------------------------x\------------------------------|

[Guitar tacet:]

Any escape might ...

G G A F#
G G A Bm

G G A F#
G G A Bm D

G G A F#
G G A Bm

G G A F#
G G A Bm D

G G A Bm
G G A F#

G G G G




Rush
Superconductor

Superconductor
Presto
Music and Lyrics by Lee, Lifeson, and Peart

Transcribed by Tony Zimmermann
<97445@protected.olga.net>
Comments welcome


(7/4) Rhy.Fig.1
---------||----------------------------------------------------------|
--x------||----------------------------------------------------------|
--x------||-----2----2-----------2-------2---2-----------------------|
------X--||-----2----2-----------2-------2---2-------2---------------|
------X--||-----0----0-----------0-------0---0---Q---2---------------|
------X--||---------------3----------3-----------3---0---------------|
cowbell/
snare Q=quarter step bend


Rhy.Fig.2
|-------------------------------------------------------------------|
|-------------------------------------------------------------------|
|-----2----2-----------2-------2---2--------------------------------|
|-----2----2-----------2-------2---2-----------2--------------------|
|-----0----0-----------0-------0---0-----------2--------------------|
|---------------3----------3-----------3---2---0--------------------|


Rhy.Fig.3
|-------------------------------------------------------------------|
|--------------------------------------------6----------------------|
|-----5----5----3------5---3---5---5----3----5----------------------|
|-----5----5----3------5---3---5---5----3----3----------------------|
|-----3----3-----------3-------3---3---------3----------------------|
|-------------------------------------------------------------------|


Rhy.Fig.4
|-------------------------------------------------------------------|
|-------------------------------------------------------------------|
|-----5----5----3------5---3---5---5--------------------------------|
|-----5----5----3------5---3---5---5--------------------------------|
|-----3----3-----------3-------3---3--------------------------------|
|--------------------------------------6--5--3----------------------|


Rhy.Fig.5 (4/4 time)
||------------------------|---------------|--------------------------|
||------------------------|---------------|--------------------------|
||---------------7---8--7-|---------------|--------8-----7-----8--7--|
||------8--6--------------|----6--5-----5-|-----8-----8-----8--------|
||------------8-----------|----------6----|--6-----------------------|
||---6--------------------|-4-------------|--------------------------|

Rhy.Fig.5 (cont.)
|---------------------------------||----------------------------------
|---------------------------------||----------------------------------
|--------------8--/12--10~~~~~----||----------------------------------
|-------8--10---------------------||----------------------------------
|--/10----------------------------||----------------------------------
|---------------------------------||----------------------------------


Rhy.Fig.6 (4/4) Rhy.Fig.7 slight trem vibrato
|----------------------------|----------------------------------------
|----------------------------|-------6-----6-------6-~~~~-------------
|------5--5--5--3--3--5--5---|-------5-----5-------3------------------
|--R---5--5--5--3--3--5--5---|---R---3-----3-------3------------------
|------3--3--3--------3--3---|-------3-----3--------------------------
|----------------------------|----------------------------------------

Rhy.Fig.8
||-----------------------------------|-------------------------------
||
||-----------------------------------|-------------------------------
||
||------------------------------2----|--2--2--------2-----2--2-------
||
||--2--2--0-----2--0--2--2--0---2----|--2--2--------2-----2--2-----2-
||
||--2--2--0-----2--0--2--2--0---0----|--0--0--------0-----0--0--Q--2-
||
||--0--0--------0-----0--0-----------|---------3-------3-------(3)-0-
||

Rhy.Fig.9 (synth arr. for guitar)
||------------------------------------------------------------------||
||------------------------------------------------------------------||
||------------------7------6----------------------------------------||
||--9-----------------------------7-------4-------------------------||
||------------------0-----(0)----(0)-----(0)------------------------||
||--0---------------------------------------------------------------||

Rhy.Fig.10
||--------------------------------|-----------------------------------
||--------------------------------|-----------------------------------
||--5--5--3-----5----3--5--5--3---|--2--2-------2-------2--2----------
||--5--5--3-----5----3--5--5--3---|--2--2-------2-------2--2--------2-
||--3--3--------3-------3--3------|--0--0-------0-------0--0--------2-
||--------------------------------|--------3---------3--------3--2--0-

Rhy.Fig.11 (synth arr. for guitar)
||------------------------------------------------------------------||
||--2---------------5------4----------------------------------------||
||--------------------------------4---------------------------------||
||----------------------------------------6-------------------------||
||------------------2-----(2)----(2)-----(2)------------------------||
||--2---------------------------------------------------------------||

Rhy.Fig.12 Rhy.Fig.13 slight trem vibrato
||---------------------------|----------------------------------------
||---------------------------|-------8-----8-------8-~~~~-------------
||-----7--7--7--5--5--7--7---|-------7-----7-------5------------------
||-R---7--7--7--5--5--7--7---|---R---5-----5-------5------------------
||-----5--5--5--------5--5---|-------5-----5--------------------------
||---------------------------|----------------------------------------

Rhy.Fig.14 Rhy.Fig.15 slight trem
vibrato
||---------------------------|----------------------------------------
||---------------------------|-------10----10-----10-~~~~-------------
||-----9--9--9--7--7--9--9---|-------9-----9-------7------------------
||-R---9--9--9--7--7--9--9---|---R---7-----7-------7------------------
||-----7--7--7--------7--7---|-------7-----7--------------------------
||---------------------------|----------------------------------------

Rhy.Fig.16 (synth arr. for guitar)
||------------------------------------------------------------------||
||--4---------------7------6----------------------------------------||
||--------------------------------6---------------------------------||
||----------------------------------------8-------------------------||
||------------------4-----(4)----(4)-----(4)------------------------||
||--4---------------------------------------------------------------||


[w/Rhy.Fig.1]
Packaged like a ...

Target mass a....

to make an ...
[w/Rhy.Fig.2]
He really ....

[alternate Rhy.Figs. 3&4]
Package the illusion ....

Careful to conceal
[Rhy.Fig.4 twice]
the fact that she's ...

she's got to ....


[w/Rhy.Fig.5]
Hit you in a soft ....


[Rhy.Fig.6 twice, then Rhy.Fig.7, repeated]
Watch his every ....

[w/Rhy.Fig.8 into next verse]

[sim.]
He can put a target ....


[sim.]
hit you in a soft .....

[sim.]
Watch her every ....

[Rhy.Fig.9]
(Guitar tacet)

[Rhy.Fig.10]
[Rhy.Fig.5]
Hit you in a ....

[Rhy.Fig.5]
hit you in a soft .....

[Rhy.Fig.6 twice, then Rhy.Fig.7, repeated]
WATCH his every .....

[Rhy.Fig.12 twice, then Rhy.Fig.13, repeated,
with synth playing Rhy.Fig.11]
Watch her every .....

[Rhy.Fig.14 twice, then Rhy.Fig.15, repeated,
with synth playing Rhy.Fig.16]
Watch his every .....

[Repeat :Rhy.Fig.6 twice, then Rhy.Fig.7]
That's entertainm....
[Last Chord: C5 x355xx]


Take a Friend

Take a Friend - RUSH

from "RUSH" album

Tabbed by: Rodrigo Teixeira <rodrigot@protected.olga.net>



Intro Fade in... keep repeating
(about 6
times)

D A C G
||-----------------------------------------------------------|
||-----------------------------------------------------------|
||-----------------------------------------------------------|
||-------4--7---------------------------2--5-----------------|
||----5-----------------4--7---------3--------------2--5-----|
||-------------------5---------------------------3-----------|



On the last repeating:
||----------------------------------------------------------------|
||----------------------------------------------------------------|
||----------------------------------------------------------------|
||-------4--7---------------------------2--5----------------------|
||----5-----------------4--7---------3--------------2--5--5~~~~---|
||-------------------5---------------------------3----------------|


Breaking the intro,
MAIN RIFF
D D
||------------------------------------|
||------------------------------------|
||---------------------7---7----------|
||---------------------7---7----------|
||----------3-----3----5---5----------|
||-----3h5-----5----------------------|


Fill (may be lacking some notes but you can get the idea)
||---------3------3------------------------|
||-----5b-----5b-----5b---3------5-----3---|
||----------------------------5-----5------|
||-----------------------------------------|
||-----------------------------------------|
||-----------------------------------------|

Alex does some cool hard-rock fills EVERYWHERE thru the music
that are hard for me to get, but they are all variations
of the first Fill, you can improvize and make your own
Lifeson Fill :)


Keep repeating the MAIN RIFF and adding some fills around :)

until..
"No one to stick with you till the eeeeeend..."


G F D
Take yourself ...
G F D
Keep'em till the ...
G F D
Whether woman ...
F G A
makes you feel so goo...



ENDING
repeat INTRO till Fade Out...



-----------------TAB Explanation
b = Bend (full)
h = hammer-on
~ = vibrato

G F D A
355433 133211 xx0232 or x57765 577655



That's it,
Any corrections, questions, remarks, suggestions or additions e-mail
me

Rodrigo Teixeira <rodrigot@protected.olga.net>
A
Brazilian Rush Fan

\|/
+----ooo---/. .\---ooo------+ "If The Future
| Rodrigo V Teixeira | Is Looking Dark
| JLENNON | We Are The Ones
+---------------------------+ Who Have To Shine" - N.P.


Tears

Tears

From the CD '2112'
Written by Geddy Lee
Mercury/Polygram Records 822545-2

Formerly tabbed by Rob Goggins <rob@protected.olga.net>.
Some slight inaccuracies, but it was a good tab nonetheless. (Do we
really need a tab legend here?) Slow 4/4 time in F.

Jimmy Pena - jimmy@protected.olga.net

Dm : [xx0231]
CaddD : [x32030]
G : [320033]
A : [x0222x]

[Riff 1]
e:--0---------------0-----------|
B:----6-------6-------6---------|
G:------0---------0-----0-------|
D:--------7---------------7-----|
A:--8---------------8-----------|
E:------------------------------|

[Riff 2]
A7sus4 A7 A7sus4 A7
e:--0--0--0--0--0-0--0--0--0--0--0-0--0--0--0--0--0-0--0--0--0--0--0~-
-|
B:--3---3-3---3-3--3-2---2-2---2-2--2-3---3-3---3-3--3-2---2-2---2-2~-
-|
G:--0-----0-----0----0-----0-----0----0-----0-----0----0-----0-----0~-
-|
D:--2-----2-----2----2-----2-----2----2-----2-----2----2-----2-----2~-
-|
A:--0-----0-----0----0-----0-----0----0-----0-----0----0-----0-----0~-
-|
E:--------------------------------------------------------------------
-|

[Riff 3]
A7sus4 A7 A7sus4 A7
e:--------------------------------0----------------------------------|
B:-------3~------------2~-----------3-----------2~-------------------|
G:-----0-----0~------0---------0------0-------0----------------------|
D:---2-------------2---------2--------------2------------------------|
A:-0-------------0---------0--------------0--------------------------|
E:-------------------------------------------------------------------|

Progression:

[Riff 1] x2

[Riff 1] x2 /w lyrics:

All of the seasons ...

[Riff 2] and [Riff 3] x1 /w lyrics:

So long, so ...

[Riff 1] x2 /w lyrics:

Then lost in that feeling, I ....

[Riff 2] and [Riff 3] x1 /w lyrics:

For me, I ...

Dm CaddD G A
What would touch me deeper? Tears ...
Dm CaddD G A
Would it touch you deeper than tears ....?

[Riff 1] x2
[Riff 2] and [Riff 3] x1

[Riff 1] x2 /w lyrics:

A lifetime of questions....

[Riff 2] and [Riff 3] x1 /w lyrics:

For you, ....

Dm CaddD G A
What would touch me deeper? Tears ....
Dm CaddD G A
Would it touch you deeper than tears ....

[Riff 1] x2
[Riff 3] x1
[Riff 1] x2

The keyboard plays: Am - for four beats
Em - for two beats
G - for two beats
Dm - until fadeout (eight beats)


The Body Electric

Rush - The Body Electric

Jimmy Pena - jimmy@protected.olga.net

| - not a standard bar line; just used to separate music
~ - vibrato or held note
x - percussive note with no pitch; muted note
. - staccato; mute the note immediately after striking it
h - hammer on
p - pull off
s - slide
t - trill; play the note(s) indicated rapidly and repeatedly
/ - slide up from infinity
\ - slide down into infinity
<5> - natural harmonic (or pinch harmonic)
3(b5) - bend note up from 3rd to 5th fret pitch
3(b5r3) - bend note from 3rd to 5th fret pitch, then return to 3rd
fret
o \_
o / repeat sign (always look for these!)

[x35553] - fret box; this is a C chord - this is the same as standard
tablature, only turned on its side. Tilt your head clockwise to
read.

[Riff 1]
D7sus4 A Asus4
e:--5~-----12~------------------------------------------------|
B:--8~-----10~-----14~----15~---------------------------------|
G:--5~-----12~-----14~----14~---------------------------------|
D:--7~-----10~-----14~----14~---------------------------------|
A:--5~-------------12~----12~---------------------------------|
E:------------------------------------------------------------|

[Riff 2] [Riff 2a]

e:-------------------|----------------------------------------|
B:-------------------|----------------------------------------|
G:-------------------|----------------------------------------|
D:-------------------|----------------------------------------|
A:--0---3---0---3----|----------------------------------------|
E:-------------------|----------------------------------------|

[Riff 3]
Dm7sus4 Em7sus4 F
e:--5--5-5-5--------7--7-7-7----------------------------------|
B:--6--6-6-6--------8--8-8-8-------10--10-10-10---10----------|
G:--5--5-5-5--------7--7-7-7-------10--10-10-10---10----------|
D:--5--5-5-5--------7--7-7-7-------10--10-10-10---10----------|
A:--5--5-5-5--5--7--7--7-7-7--7--8--8---8--8--8----8----------|
E:------------------------------------------------------------|
E
e:------------------------------------------------------------|
B:--10-10-10--10---9------------------------------------------|
G:--10-10-10--10---9------------------------------------------|
D:--10-10-10--10---9------------------------------------------|
A:---8--8--8---8---7------------------------------------------|
E:------------------------------------------------------------|

[Riff 4]

e:--5--5-5-5--------7--7-7-7----------------------------------|
B:--6--6-6-6--------8--8-8-8----------------------------------|
G:--5--5-5-5--------7--7-7-7----2~----------------------------|
D:--5--5-5-5--------7--7-7-7----2~----------------------------|
A:--5--5-5-5--5--7--7--7-7-7----0~----------------------------|
E:------------------------------------------------------------|

[Riff 5]
A5
Em7 Dsus4 Csus2
e:----|----------------------------------------------|------------|
B:----|--------2------------3---------------3--------|-----3------|
G:----|---4------2--------0------0--------0---0------|---5---5----|
D:-2--|-2---2-----------2------2---0----4------------|-5-------5--|
A:-0--|------------2----------------------------5--3-|------------|
E:----|------------0---------------------------------|------------|

[Riff 6] keyboard plays these parts (A5)
A \/ C \/ D \/ E \/
e:--------------------12~-------------10~--------------12~------------
---|
B:--14~---------------13~-------------10~--------------12~------------
---|
G:--14~---------------12~-------------11~--------------13~------------
---|
D:--14~--7-7-7-7-7-7------7-7-7-7-7-7-12~--7-7-7-7-7-7-14~--7-7-7-7-7-
7--|
A:--12~--7-7-7-7-7-7------7-7-7-7-7-7------7-7-7-7-7-7------7-7-7-7-7-
7--|
E:--------------------------------------------------------------------
---|

[Riff 7]
A5 Csus2/G D(add G)
e:------5-5-5-5-5---------------------------------------------|
B:------5-5-5-5-5---3-3--3-3-3-3-3---3-3--3-3-3-3-3-----------|
G:-2-2--2-2-2-2-2---5-5--5-5-5-5-5---0-0--0-0-0-0-0-----------|
D:-2-2--2-2-2-2-2---5-5--5-5-5-5-5---4-4--4-4-4-4-4-----------|
A:-0-0--0-0-0-0-0---3-3--3-3-3-3-3---5-5--5-5-5-5-5-----------|
E:------------------3-3--3-3-3-3-3----------------------------|
E
e:--0-0--0-0-0-0-0--------------------------------------------|
B:--0-0--0-0-0-0-0--------------------------------------------|
G:--1-1--1-1-1-1-1--------------------------------------------|
D:--2-2--2-2-2-2-2--------------------------------------------|
A:--2-2--2-2-2-2-2--------------------------------------------|
E:--0-0--0-0-0-0-0--------------------------------------------|

Song progression:

(Drums play 8 measures before guitar joins)

[Riff 1] x4
[Riff 2] x1
[Riff 3] x1
[Riff 4] x1

[Riff 5] x4 w/ lyrics:

One humanoid .....,
Seeking freedom beneath a ....[repl. end of Riff 5 w/ Riff 2]
try'n' to change its program trying ....
Images conflicting .....[replace end of Riff 5 /w Riff 2]

[Riff 3] x2 /w lyrics:

One, zero, zero, one, zero, zero, ....

[Riff 4] x1 /w lyrics:
One, zero, zero, ....

[Riff 5] x4 w/ lyrics:

Memory banks unloading......
Unit One's in trouble, and it's scared out .....
A pulse of dying power ....[Riff 2 end as above]

[Riff 3] x2 /w lyrics:

One, zero, zero, one, zero, ....

[Riff 4] x1 /w lyrics:

One, zero, zero, ....

[Riff 6] x2

[Riff 7] x2 /w lyrics:

It replays each of the days, a hundred ....

[Guitar Solo]
A C/G D
e:--5---7-7---------10-10-10-10-10---8~~------8-8--5----------|
B:--5---5-5--12~~----7--7--7--7--7---5~~------5-5--5--8~~p5---|
G:--2--------12~~----7--7--7--7--7---5~~------5-5--5----------|
D:--2---------------------------------------------------------|
A:------------------------------------------------------------|
E:------------------------------------------------------------|

e:---8-8--5---------------------------------------------------|
B:---5-5--5--8~~----------------------------------------------|
G:---5-5--5--5~~----------2p0h4--2p0----0h2p0-----------------|
D:-----------------0h2h4-------------4---------4p2p0h5--5(b7)~|
A:------------------------------------------------------------|
E:------------------------------------------------------------|

e:----------------15~~~--------------12-15~~~--12----12-------|
B:----------14-15-----------12-13-15--------------15----<13>~-|
G:--12~~~~---------------12-----------------------------------|
D:------------------------------------------------------------|
A:------------------------------------------------------------|
E:------------------------------------------------------------|

slow slide infinite bend
e:--------------12--------------------------------------------|
B:-15(b17)~~--------15(b17r15)-13-15-13\----------------------|
G:-----------------------------------------------19(b~)-------|
D:------------------------------------------------------------|
A:------------------------------------------------------------|
E:------------------------------------------------------------|

e:-----20~~~--------------------------------------------------|
B:-20~--------------------------------------------------------|
G:------------------------------------------------------------|
D:------------------------------------------------------------|
A:------------------------------------------------------------|
E:------------------------------------------------------------|

[Riff 1] x2

[Riff 2] x1

[Riff 3] x2 /w lyrics:

One, zero, zero, one, zero.....

[Riff 4] x1 /w lyrics:

One, zero, zero, .....

[Riff 6] x2

[Riff 7] x2 /w lyrics:

It replays each of the days, a .....

mother of all ....

[Riff 7] x4 until end (Last note is an A5)


The Camera Eye

The Camera Eye guitar tabs

Transcription by Charles Grogan (s3sijdp@protected.olga.net)



-------1---|-------|-------------------------------------------------|
-5-3-6-1---|-------|-------------------------------------------------|
-5-4-5-3---|-------|-------------------------------------------------|
-5-5-5-3---|-------|-------6-4-3-------6-4-3-------------------------|
-3-3-3-1---|-4-3---|-4---4-------4---4-------3-----3-----3-----3-----|
-----------|-------|---4-----------4-----------1-3---1-3---1-3---1-3-|


-------------------------------------------------|-------------------
-------9-7-6-------9-7-6-------------------------|-------------------
-6---6-------6---6-------5-----5-----5-----5-----|-------------------
---6-----------6-----------3-5---3-5---3-5---3-5-|-------------------
-------------------------------------------------|-------------------
-------------------------------------------------|-------------------


-----------------|-----------------|-0-1-|---------------------------
-----------------|-6-6-6-6-6-6-6-6-|-1-1-|---------------------------
-5-5-5-5-5-5-5-5-|-5-5-5-5-5-5-5-5-|-0-2-|---------------------------
-5-5-5-5-5-5-5-5-|-7-5-8-5-7-5-8-5-|-2-3-|---------------------------
-7-5-8-5-7-5-8-5-|-----------------|-3-3-|---------------------------
-----------------|-----------------|---1-|---------------------------


-------------|-------------|---1-----1-|---0-----1-|-----------------
-----2-----2-|-----1-----1-|---2-----2-|---1-----1-|-----------------
---1-----1---|---0-----0---|---1-----1-|---0-----0-|-----------------
-3-----4-----|-2-----3-----|-3---4-4---|-2---3-3---|-----------------
-------------|-------------|-----------|-----------|-----------------
-------------|-------------|-----------|-----------|-----------------


--------------9--9--9--9--9-|---------------------------------|------
--------------9--9--9--9--9-|-14-16-18->-(19)->-(18)-17-15----|------
-------------11-11-11-11-11-|---------------------------------|------
-------6-4-3-11-11-11-11-11-|------------------------------17-|------
-4---4----------------------|---------------------------------|------
---4------------------------|---------------------------------|------


-------------------|-------------------------_-_---------------------
----15----17-------|---------6-7->-(9)->-7--6-7-6-5-6->-(8)->-6-5----
-17----15----17----|-------6-----------------------------------------
----------------17-|---3-4-------------------------------------------
-------------------|-4-----------------------------------------------
-------------------|-------------------------------------------------


-5->-(6)!-5->-(6)->-|-13-13-13-16-13-13-13-13-13-16-13-13-13-13-16-13
--------------------|------------------------------------------------
--------------------|------------------------------------------------
--------------------|------------------------------------------------
--------------------|------------------------------------------------
--------------------|------------------------------------------------


16-13-16-13->!------------------------------|------------------------
----------------16->-(18)->-16-14-16->-(18)-|------------------------
--------------------------------------------|------------------------
--------------------------------------------|------------------------
--------------------------------------------|------------------------
--------------------------------------------|------------------------


---------------------------------------------------------------------
13-15->-(17)-(17)-(17)-(17)-15->-(17)-15->-(17)-15->-(17)-15->-(17)--
---------------------------------------------------------------------
---------------------------------------------------------------------
---------------------------------------------------------------------
---------------------------------------------------------------------


----------------------------|----|-------------|-------------|--------
-
15->-(17)-15->-(17)->-15-13-|-14-|-18-14-13-14-|-17-13-11-13-|--------
-
----------------------------|----|-------------|-------------|--------
-
----------------------------|----|-------------|-------------|--------
-
----------------------------|----|-------------|-------------|--------
-
----------------------------|----|-------------|-------------|--------
-


----------------------------------------------------------------------
-
17-15-13--15-17--13-15-17--13-15-17--13-15-17--13-15-13-17-13---------
-
----------------------------------------------------------------------
-
--------------------------------------------------------------14->-
(15)
----------------------------------------------------------------------
-
----------------------------------------------------------------------
-

---
Explanation on used symbols:

| - A pair of these indicate a part of music, not the usuals bars.
: - Indicates that a part is to be repeated. This may be ommited, you
should
hear it too.
_ - Indicates a hammer-on or pull-off (You should know which is
appropriate)
> - Indicates a bend-up or down or a slide. With a bend, the note to
bend to
is between '(' and ')'. Use the whammy for a downbend. With a
slide, the
follow-up note is the one to be slid to.
! - Indicates vibrato.
^ - Indicates harmonics. Is printed below the note.


The Enemy Within

The Enemy Within

From the CD 'Grace Under Pressure'
Written by Lee/Lifeson/Peart
Mercury/Polygram Records 818476-2

This song is in D. The guitar is chorused. This tab is not
entirely correct as there are many picking nuances throughout the song
and I didn't tab out each and every one. I just tabbed the main ones
and
you are free to experiment with them.

Jimmy Pena - jimmy@protected.olga.net

| = not a standard bar line; just used to separate music
~ = vibrato or held note
s = slide
/ = slide up from infinity
\ = slide down into infinity
[x35553] = fret box; this is a C chord - this is the same as standard
tablature, only turned on its side. Tilt your head clockwise to
read.
PM = Palm Mute; lightly touch the strings at the bridge with the edge
of
the fret hand

Chord legend:

A : [x0222x]


[Riff 1] - Let each note ring out
Bm some kind of D Bm? Asus4 addD?
e:-------------------|------------0---|------2--------|--------------|
B:--------0----3-----|------0--3------|----3----------|------3---2---|
G:------4---------0--|----2---------0-|--4------2-----|----2-------4-|
D:----0--------------|-0--------------|2------------2-|--0-----------|
A:--2----------------|----------------|-----------0---|0-------------|
E:-------------------|----------------|---------------|--------------|

[Riff 2]
Bm G A
e:--------------7---------------7\---------------3----------------5--|
B:--------------7---------------7\---------------3----------------5--|
G:--------------7---------------7\---------------4----------------6--|
D:--------------9---------------9\-----------------------------------|
A:--9--9-9-9-9------9--9-9-9-9-------5--5-5-5-5-------7--7-7-7-7-----|
E:--7--7-7-7-7------7--7-7-7-7-------3--3-3-3-3-------5--5-5-5-5-----|
PM ----------| PM ----------| PM ----------| PM ----------|

[Riff 3]
Bm D A A/C#
e:-------7~--------7~--------7~---------------|----------------------|
B:-------7~--------7~--------7~-----10~-------|----------------------|
G:-------7~--------7~--------7~-----11~-11----|--2--2-2-2--2-2--2----|
D:-------9~--------9~--------9~-----12~-12----|--2--2-2-2--2-2--2----|
A:--9-9-----9-9-9-----9-9-9-----9---12~-12----|--0--0-0-0--0-0--4----|
E:--7-7-----7-7-7-----7-7-7-----7---10~-10s12-|----------------------|

e:----------------------------|
B:-------------------2--------|
G:-----2-------------2--------|
D:-----2--2----0-----2--------|
A:--4--4--4------0---0---0----|
E:----------------------------|

[Riff 4]
Bm G A
e:-------------------------------------------------------------------|
B:--------------------7----------------------------------------------|
G:---------7--------7------------------4----------6------------------|
D:-----------9----9------------------5----------7--------------------|
A:------9--------------------------5----------7----------------------|
E:---7---------------------------3----------5------------------------|
PM ----------------------------------------------|

Progression:

[Riff 1] x2

[Riff 2] x4

[Riff 2] x8 /w lyrics:

Things crawl in the darkness that ...

[Riff 3] x1

[Riff 3] x2 /w lyrics:

I'm not not giving in to security ...

[Guitar tacet] while keyboard and bass imply [Riff 2] x4

[Riff 2] x8 /w lyrics:

Suspicious looking stranger ....

[Riff 3] x1

[Riff 3] x2 /w lyrics:

I'm not not giving in to ...

[Riff 4] x8

[Riff 1] x3

To you is it movement or is it action...

A A
distance.

[Riff 3] x2 /w lyrics:

I'm not not giving ....

[Riff 3] x2 /w lyrics:

I'm not not giving in to ....
___(some kind of weird chord
here
\/ can't make it out)
Experience to extremes, ....

[Riff 4] x5

e:-------------------------------------------------------------------|
B:----------------------7--------------------------------------------|
G:---------7----------7----------------------------------------------|
D:------------9-----9----------------5-5-5-5---7-7-7-7---------------|
A:------9----------------------------5-5-5-5---7-7-7-7---------------|
E:---7-------------------------------3-3-3-3---5-5-5-5---------------|
PM -------------------------|
Hey hey ...!


Until fadeout:

Bm G A
e:-----7--7-----7--7-----7-----7-------3-------3------5-5-----5------|
B:-----7--7-----7--7-----7-----7-------3-------3------5-5-----5------|
G:-----7--7-----7--7-----7-----7-------4-------4------6-6-----6------|
D:-----9--9-----9--9-----9-----9-------------------------------------|
A:--9--------9--------9-----9------5--------5------7-------7---------|
E:--7--------7--------7-----7------3--------3------5-------5---------|


Rush - V Bacchus Plateau

Rush - V Bacchus Plateau

[Riff 1]
Em7 A Dsus2 D Dsus2 D5
e:----------------0--2---0--2--0-----------------------|
B:--3--2---3--2---3--3---3--3--3--3--------------------|
G:--0--2---0--2---2--2---2--2--2--2--------------------|
D:--2--2---2--2---0--0---0--0--0--0--------------------|
A:--2--0---2--0----------------3-----------------------|
E:-----------------------------------------------------|

[Riff 2]
G D(addG)/F# E5
e:-----------------------------------------------------|
B:-----------------------------------------------------|
G:--------------0--------0-----------------------------|
D:------------0--------0-------------------------------|
A:----------2--------0---------------------------------|
E:--0--2--3--------2--------0--------------------------|

Progression:

Fade in with [Riff 1] x1

[Riff 1] x1

[Riff 1] x3 w/ lyrics:

Another endless day. ....
Another glass of wine. Drink .....G D
To days without that chill at morning. ....

[xx0787]
D G A A D D [Riff 2] x1 D A
Draw another goblet from the ....
[xx0787]
D G A A D D [Riff 2] x1
Crimson misty memory, hazy ....
[xx0787]
D A G G D D [Riff 2] x1 D A
Give me back my wonder, I've ....
[xx0787]
D A G G D D [Riff 2] x1 Dsus4
Dsus4
I guess it doesn't matter; there's ....

D D
live.

[Riff 1] x3 w/ lyrics:

Another foggy dawn. The ....
Another doubtful fear. The ....
My soul grows ever weary, ....G D

[xx0787]
D G A A D D [Riff 2] x1 D A
Draw another goblet from ....
[xx0787]
D G A A D D [Riff 2] x1
Crimson misty memory, ....

D A G G D D [Riff 2] x1 D A
Give me back my wonder, ....
D A G G D D [Riff 2] x1 G G
D
I guess it doesn't matter; there's .....

D
live.

[Guitar Solo] in the key of D; this is part of it

e:-12h14p12h14p12h14p12--12h14h15--12h14p12h14p12h14p12---|
B:--------------------------------------------------------|
G:--------------------------------------------------------|
D:--------------------------------------------------------|
A:--------------------------------------------------------|
E:--------------------------------------------------------|

e:-14p12p10--10--12--12b14--10--12b14--12---12b14---------|
B:--------------------------------------------------------|
G:--------------------------------------------------------|
D:--------------------------------------------------------|
A:--------------------------------------------------------|
E:--------------------------------------------------------|

e:-7-9-10-10-10-10-10-10s7-----------------------------------|
B:-------------------------7-8-10--8p7p5--7b8r7p5------------|
G:--------------------------------------------------7--------|
D:-----------------------------------------------------------|
A:-----------------------------------------------------------|
E:-----------------------------------------------------------|

e:-----------------------------------------------------------|
B:-------------5-6-5-----------------------------------------|
G:-------------------7--7s8----------------------------------|
D:-----------------------------------------------------------|
A:-----------------------------------------------------------|
E:-----------------------------------------------------------|

If anyone can fix this - PLEASE do.

Rush - II Didacts and Narpets

Rush - II Didacts and Narpets

Berzerk Neil
e:----------------|--------------|--------------|--------------------|
B:----------------|--------------|--------------|--------------------|
G:----------------|--9------7----|--------------|--9----9--7---------|
D:----------------|--9------7----|--5------3----|--9----9--7---------|
A:----------------|--7------5----|--5------3----|--7----7--5---------|
E:----------------|--------------|--3------1----|--------------------|
Stay! Go! Work....

Berzerk Neil
e:----------------|-----------------|-----------------|--------------|
B:----------------|-----------------|-----------------|--------------|
G:----------------|--9------7-------|-----------------|--------------|
D:--5------3------|--9------7-------|--5------3-------|--------------|
A:--5------3------|--7------5-------|--5------3-------|--------------|
E:--3------1------|-----------------|--3------1-------|--------------|
Earn! Give! Wait! Fight! ...

e:---------------------------|---------------------------------------|
B:--------6-----8-----10--6--|---------------------------------------|
G:--9--7--5--5--7--7--9---5--|---------------------------------------|
D:--9--7--3--5--5--7--7---3--|---------------------------------------|
A:--7--5-----3-----5---------|---------------------------------------|
E:---------------------------|---------------------------------------|


Rush - I In the Valley

Rush - I In the Valley

[Riff 1] - Freely

D A/C# Bm
e:----5-----5---------|-------5-------5--|---------7-------7-----|
B:------------8-7-----|---5------7-------|----7-------7----------|
G:--7----7--------7---|-6---6------6----6|--4----7------7----4---|
D:------------------7-|------------------|-----------------------|
A:--------------------|------------------|-----------------------|
E:--------------------|------------------|-----------------------|

D G G/F#
e:---------7-------7---|-------3----3-----------------3-------|
B:----7-------7--------|---------0----3----------3------3-----|
G:------7-------7------|-----0----------0------0----------0---|
D:-7-------------------|------------------0--------0--------0-|
A:---------------------|--------------------------------------|
E:---------------------|-0-3-----------------2----------------|

E A
e:------0-----0-----0---------------------------------------|
B:---0----------0------2--------------------5---------------|
G:--------1-------1----2------6---4--7---6------------------|
D:-2-------------------2---7--------------------------------|
A:---------------------0------------------------------------|
E:----------------------------------------------------------|

*** Since it features so prominently, here is how the first measure
is played on the repeats:

D
e:--------------------|
B:------7----8-7------|
G:--7~----7------7----|
D:-----------------7--|
A:--------------------|
E:--------------------|

[Riff 2] Freely
D5 D/E D/F# G(addA) play this the last time
\/ \/ \/ \/ A \/
e:------------3--------------------------|--------------------|
B:-3--3--3----0---2----------2-----------|---2----------------|
G:-2--2--2----2---2----------2-----------|---2----------------|
D:-0--2--0----0---2--2-2--2--2--2-2--2---|---2----------------|
A:-------x----x---0--0-0--0--0--0-0--0---|---0----------------|
E:-------2----3--------------------------|--------------------|

[Riff 3] Play 2x
B(addE) A(addB) D5 C5
e:---------------5-|----------------------------------------|
B:-0--0---0--0---7-|----------------------------------------|
G:-8--6---8--6---7-|o--5-5---5-5-5-5-5-7-7-----------------o|
D:-9--7---9--7---7-|o--5-5---5-5-5-5-5-7-7-----------------o|
A:-0--0---0--0---5-|---3-3-0-3-3-3-3-3-5-5------------------|
E:-----------------|----------------------------------------|

[Riff 4] Freely arpeggate
Em7 G G/F#
e:--0-------3---3-------------------------------------------|
B:--3-------3---3-------------------------------------------|
G:--0-------0---0-------------------------------------------|
D:--2-------0---0-------------------------------------------|
A:--2-------2---x-------------------------------------------|
E:--0-------3---2-------------------------------------------|

Progression:

[Riff 1] x1

[Riff 1] x2 w/ lyrics:

I am born; I am ...

[Riff 2] x5

[Riff 3] x2

[Riff 3] x2 w/ lyrics:

My eyes have just been opened and ....

Just one blur I recognize, the one ....[strike A5]

[Riff 4] x2

[Riff 4] x2 w/ lyrics:

Yet my eyes are drawn towards the ....

D C
The mountain holds the ....

D C Fmaj7
till bursting forth from rocky chains....

G6
with light.

[Riff 3] x2

[Riff 3] x2 w/ lyrics:

Living one long sunrise, for to me .....

I do not know of dust to dust, I....[strike A5]

[Riff 4] x2

[Riff 4] x2 w/ lyrics:

Yet my eyes are drawn towards the .....

D C
The mountain holds the sunrise ....

D C Fmaj7
till bursting forth from rocky .....

G6
with light.

[Riff 3] x1 [last half an extra two times


Rush - III No One At The Bridge

Rush - III No One At The Bridge

[Riff 1]
Em(addF#)
e:----------------------------------------------------------|
B:----------------------------------------------------------|
G:-------0-----------0-----------0-----------0--------------|
D:-----4---4-------4---4-------4---4-------4---4------------|
A:---2-------2---2-------2---2-------2---2-------2----------|
E:-0-----------0-----------0-----------0-----------0--------|

[Riff 2]
Gm(addA)/Bb
e:----------------------------------------------------------|
B:----------------------------------------------------------|
G:-------0-----------0-----------0-----------0--------------|
D:-----7---7-------7---7-------7---7-------7---7------------|
A:---5-------5---5-------5---5-------5---5-------5----------|
E:-6-----------6-----------6-----------6-----------6--------|

[Riff 3]
C G G/F#
e:----------------------------------------------------------|
B:----------------------------------------------------------|
G:---------0----------0-----------0----------0--------------|
D:------2----------0-----------0----------0-----------------|
A:---3----------2-------------------------------------------|
E:-------------------------3----------2---------------------|

[Riff 4a] - Freely
A C(addD)
e:--0--------------3--3---3--3------------------------------|
B:--2--2-2-0~------3--3---3--3------------------------------|
G:--2--------------0--0---0--0------------------------------|
D:--2--------------2--2---2--2------------------------------|
A:--0--------------3--3---3--3------------------------------|
E:----------------------------------------------------------|

[Riff 4b] - wallop the F
F
e:--0---0-0--0-----1----------------------------------------|
B:--2---2-2--2-----1----------------------------------------|
G:--2---2-2--2-----2----------------------------------------|
D:--2---2-2--2-----3----------------------------------------|
A:--0---0-0--0-----3----------------------------------------|
E:-----------------1----------------------------------------|

Progression:

Fade in: [Riff 2] x1

[Riff 1] x1
[Riff 2] x1

[First half of Riff 1] x1

[Riff 3] x1

[Riff 1 + 2] x2 w/ lyrics:

Crying back to ...

The sky is pitching ....

[Riff 4a] x3 w/ lyrics:

Seaspray blurs ....

[Riff 4b] x1 w/ lyrics:

I'm lashed, helpless....

[Riff 1 + 2] x2

[First half of Riff 1] x1

[Riff 3] x1

[Riff 1 + 2] x2 w/ lyrics:

Remembering when ....

[Riff 4a] x3 w/ lyrics:

But now the sea's ....-

[Riff 4b] x1 w/ lyrics:

- when I need a ....

[Riff 1] x1

(These fretboxes apply to ALL of the remaining G, D, and Em7 chords
here!)

[355433] [x57775] [x79787]
G D G D Em7 D E E
Call out for direction and .....

G D G D Em7 D E E
Shout out for salvation but there's no o...

G D Em7 D E E G D Em7 D E E
Cry out supplication for th....

G D G D Em7 D
Scream out desperation .....

[Riff 1 + 2] x2 w/ lyrics:

hear.

[First half of Riff 1] x1

[Riff 3] x1

[Guitar Solo]

e:----------------------------------------------------------|
B:---------------------------------8------8-7---------------|
G:------------------------7--7~--7---7~-7-----7--7h9~~------|
D:-------------5--7--7s9------------------------------------|
A:10s5s7~-7-7-----------------------------------------------|
E:----------------------------------------------------------|

e:--7-9-10-10--10~-12--12~--10p9-9p7-|--------9-10--12------|
B:-----------------------------------|-----10~----------10~-|
G:-----------------------------------|----------------------|
D:-----------------------------------|----------------------|
A:-----------------------------------|----------------------|
E:-----------------------------------|----------------------|

e:12b14-12-10--12b14--12--10--------9-10-12--------------------|
B:------------------------------10~---------10~-8-7-5----------|
G:----------------------------------------------------7-6------|
D:--------------------------------------------------------7----|
A:-------------------------------------------------------------|
E:-------------------------------------------------------------|

e:------9-10-12------14b15--14-12---14b15--14-12------9-10-12----|
B:---10~---------10~-------------------------------10~--------10~|
G:---------------------------------------------------------------|
D:---------------------------------------------------------------|
A:---------------------------------------------------------------|
E:---------------------------------------------------------------|

e:----------------------------------------------------------|
B:---6~--8--6--8--6~s5~~\-----------------------------------|
G:----------------------------------------------------------|
D:----------------------------------------------------------|
A:----------------------------------------------------------|
E:----------------------------------------------------------|

Em(addF#)
e:------------------------------------------------------------0~-|
B:--------------------------------------------------------0~-----|
G:-------0-----------0-----------0-----------0-----------0~------|
D:-----4---4-------4---4-------4---4-------4---4--------4~-------|
A:---2-------2---2-------2---2-------2---2-------2-----2~--------|
E:-0-----------0-----------0-----------0--------------0~---------|


Rush - IV Panacea

Rush - IV Panacea

[Riff 1]
Am C G Am Am C G
e:---------------------------0-----|------------------3---------|
B:--1-------1--------0-----------1-|-1-------1--------3---------|
G:--------------0----------0-------|-2-----------0----0---------|
D:----2-------2---------0----------|-2-2-------2------0---------|
A:--0---0-2-3--------------------0-|-0---0-2-3--------2---------|
E:----------------2--3-------------|---------------2--3---------|

[Riff 2a] [Riff 2b]
D(add G&E) C9
e:--5---------------|--3------------------------------|
B:----5---------5---|----3---------3------------------|
G:------0-----0---0-|------0-----0---0----------------|
D:--------4~--------|--------2~-----------------------|
A:--5---------------|--3------------------------------|
E:------------------|---------------------------------|

[Riff 2c] [Riff 2d]
G G
e:--3-------------------|--3-----------------------------|
B:----3---------3-------|----3---------3-----------------|
G:------0-----0---0-----|------0-----0---0---------------|
D:--------0~------------|--------0~----------------------|
A:----------------------|--2-----------------------------|
E:--3-------------------|--------------------------------|

[Riff 3a] - Freely
A C Fmaj7
e:----------------------0---------3-----------------|
B:-2----2-3-5---1--------1-----1----3-------3~------|
G:-2-------------0---0----2--2--------0-------------|
D:-2--2-----------2-2---3--3------------0~--0~------|
A:-0------------3--3--------------------------------|
E:--------------------------------------------------|

[Riff 3b] - Freely
A C Fmaj7 E Esus4
e:------------------------0---------0--0-0--0-0--0-|
B:-2----2-3-5---1----------1---1----0--0-0--0-0--0-|
G:-2-------------0---0------2-2-----1--1-1--2-2--1-|
D:-2--2-----------2-2--------3------2--2-2--2-2--2-|
A:-0------------3--3------3---------2--2-2--2-2--2-|
E:----------------------------------0--0-0--0-0--0-|

[Riff 4] - Strum
A(add B)
e:--0---0-----0---0----|---0---0-0---0---0-0------------|
B:--0-----0---0-----0--|---1---1-1---1---1-1------------|
G:--6---------6--------|---0---------0------------------|
D:--7---------7--------|---2---------2------------------|
A:--7---------7--------|---3---------3------------------|
E:--5---------5--------|--------------------------------|

During [Riff 4] right after Geddy sings "Panacea..." it sounds like
there
are some harmonics:

e:-------<5>-------|
B:--<5>------------|
G:-----------------|
D:-----------------|
A:-----------------|
E:-----------------|

[Riff 5] - Strum
Fmaj7/C G D E
e:-0----0----3----------3----3--2---------0-------------|
B:-1---1-1---3--3---3---3---3---3--3------0-------------|
G:-2--2---2--0---0-0----0--0----2----2----1-------------|
D:-3---------0----0-----0-------0------0--2-------------|
A:-3---------2----------2-----------------2-------------|
E:-----------3----------3-----------------0-------------|

[Riff 6]
G A N.C. D
e:--3-----3--5-----5----7-8-7----5----------------------|
B:----3--------5-----------------7----------------------|
G:------4--------6---------------7----------------------|
D:-------------------------------7----------------------|
A:-------------------------------5----------------------|
E:--3--------5------------------------------------------|

Progression:

[Riff 1] x1

[Riff 2a] x2

[Riff 2a] x2 w/ lyrics:

The whitness of ....

[Riff 2b] x2 /w lyrics:

un - folding from ....

[Riff 2c] x1
[Riff 2d] x1

I stare around ...

[Riff 6] x1

Have I left ...

[Riff 3a] x1 w/ lyrics:

I catch the scent of ambergris ...

[Riff 3b] x1 w/ lyrics:

My gaze is caught and held and I .....

[Riff 4] x2 w/ lyrics:

Panacea, liquid ....

[Riff 5] x1 w/ lyrics:

Enchantment falls around me ....

[Riff 1] x1

[Riff 2a] x2

[Riff 2a] x2 w/ lyrics:

Here's a meaning ...
[Riff 2b] x2 w/ lyrics:

a shelter from ....

[Riff 2c] x2 w/ lyrics:

Pacify my ...

[Riff 6] x1

body, ....

[Riff 2a] x2 w/ lyrics:

Naked in our unity,

[Riff 2b] x2 /w lyrics:

a smile for ev'ry tear.

[Riff 2c] x2 w/ lyrics:

Gentle hands that ....

[Riff 6] x1

comfort ....

[Riff 3b] x1 w/ lyrics:

Yet I know I must be gone ....

[Riff 4] x2 w/ lyrics:

Panacea, passion ....

With lyrics below:

Am G Am E7 Am
e:-------------------------3-----------------------0-----5~--|
B:-1-----1-------1---3-------3--------1-----1--0-----3---5~--|
G:-----2---2---2---------0-----0---0------2--------------5~--|
D:---2-------2---------0---------0------2--------2-------7~--|
A:-0----------------------------------0----------------------|
E:-------------------3-------------------------0-------------|

Am G Am E7 Am
My heart will lie beside you, and ....

Rush - VI The Fountain

Rush - VI The Fountain

[Riff 1] Play 2x
B(addE) A(addB) D5 C5
e:---------------5-|----------------------------------------|
B:-0--0---0--0---7-|----------------------------------------|
G:-8--6---8--6---7-|o--5-5---5-5-5-5-5-7-7-----------------o|
D:-9--7---9--7---7-|o--5-5---5-5-5-5-5-7-7-----------------o|
A:-0--0---0--0---5-|---3-3-0-3-3-3-3-3-5-5------------------|
E:-----------------|----------------------------------------|

[Riff 2] Freely arpeggate
Em7 G G/F#
e:--0-------3---3-------------------------------------------|
B:--3-------3---3-------------------------------------------|
G:--0-------0---0-------------------------------------------|
D:--2-------0---0-------------------------------------------|
A:--2-------2---x-------------------------------------------|
E:--0-------3---2-------------------------------------------|

Progression:

[Riff 1] x2

[Riff 1] x2 w/ lyrics:

Look, the mist is rising and the ....

Hear the dancing waters, I must ....[Strike A5]

[Riff 2] x2

[Riff 2] x2 w/ lyrics:

Now at last I fall before the ....

D C
Many journeys end here, but ....

D C Fmaj7 G6
Life is just a candle, and a ....

[Riff 1] x2

[Riff 1] x2 w/ lyrics:

The key, the end, the answer, ....

Though I've reached a signpost, it's ....[Strike A5]

[Riff 2] x1

[Guitar Solo] in the key of G over: [Riff 2] x2 then [Riff 3] x1

(this is only an approximation; and a BAD one at that; the beginning
is
right, and the ending is right, the rest is ... )

e:----------7-7-----------------7~--7-9-10-12-10~-----------|
B:-10s5~-5-----10p8~-8h10~-8-10-----------------------------|
G:----------------------------------------------------------|
D:----------------------------------------------------------|
A:----------------------------------------------------------|
E:----------------------------------------------------------|

e:-15p14p12h15--15p14p12h15---10p9p7--5---5-----7-9--7h9p7--|
B:--------------------------------------7---7s9-------------|
G:----------------------------------------------------------|
D:----------------------------------------------------------|
A:----------------------------------------------------------|
E:----------------------------------------------------------|

e:----------------9-10-10-9----5---5---------10p9p7h9-------|
B:-7s5\---9-10-12-----------9----8---8-7-5------------------|
G:-----------------------------------------7----------------|
D:----------------------------------------------------------|
A:----------------------------------------------------------|
E:----------------------------------------------------------|

e:-10p9p7h9--10p9p7h9--8p7p5h7--5---------------------------|
B:--------------------------------8-7-5--------6--7b8r7p6---|
G:--------------------------------------7-5-----------------|
D:------------------------------------------7---------------|
A:----------------------------------------------------------|
E:----------------------------------------------------------|

e:----------------------------------------------------------|
B:---4h6p4--------------------------------------------------|
G:----------------------------------------------------------|
D:----------------------------------------------------------|
A:----------------------------------------------------------|
E:----------------------------------------------------------|

[Riff 1] x1 [last half an extra four times]

D A/C# Bm
e:----5-----5---------|-------5-------5--|---------7-------7-----|
B:------------8-7-----|---5------7-------|----7-------7----------|
G:--7----7--------7---|-6---6------6----6|--4----7------7----4---|
D:------------------7-|------------------|-----------------------|
A:--------------------|------------------|-----------------------|
E:--------------------|------------------|-----------------------|

D G G/F#
e:---------7-------7---|---------3---3----------------3-------|
B:----7-------7--------|-----------0---3----------3-----3-----|
G:------7-------7------|-------0---------0------0---------0---|
D:-7-------------------|-------------------0--------0-------0-|
A:---------------------|--------------------------------------|
E:---------------------|-0--3----------------2----------------|

E A
e:------0-----0-----0--0------------------------------------|
B:---0----------0------2--------------------5---------------|
G:--------1-------1----2------6---4--7---6------------------|
D:-2-------------------2---7--------------------------------|
A:---------------------0------------------------------------|
E:----------------------------------------------------------|

*** Same as before: First measure is repeated like this:

D
e:--------------------|
B:------7----8-7------|
G:--7~----7------7----|
D:-----------------7--|
A:--------------------|
E:--------------------|

[Above x2 w/ lyrics]:

I'm in motion; I am ...

D
Still, ....


Rush - I Into Darkness

Rush - I Into Darkness

[Riff 1]
Em7 Dsus4/E D/E Em7 C G D/F#
e:------3------3---2-------3----------------------------------------|
B:------3------3---3-------3----------------------------------------|
G:------0------2---2-------0-----------0----------------------------|
D:------2------2---2-------2---------2-------0----------------------|
A:------2------------------2-(0-2)-3-------2-------0----------------|
E:--0~--0---0~---------0~--0-------------3-------2------------------|

[Fill 1] [Fill 2] [Fill 3] [FIll 4]
e:-----------------|-------------|-------------------|---------------|
B:-3sss7~~ss3ss5~--|---15b17~~---|--8s12--12s8-8s10~-|---------------|
G:-----------------|-------------|-------------------|-11s7-7s9--4---|
D:-----------------|-------------|-------------------|-------------5.|
A:-----------------|-------------|-------------------|---------------|
E:-----------------|-------------|-------------------|---------------|


Progression:

[Riff 1] /w lyrics:

As grey traces of dawn tinge the ....

With [Riff 1] and [Fill 1]:

Stripped of will ...

[Solo] over [Riff 1]:

e:--3s7-7s10~-----14~~---------------12s7s12--------------------------
---|
B:-----------------------15b17~~~------------12s10s12--7s3s5~---------
---|
G:--------------------------------------------------------------7~----
7~-|
D:--------------------------------------------------------------------
---|
A:--------------------------------------------------------------------
---|
E:--------------------------------------------------------------------
---|

[increasing volume]

e:--------12~~------------------------------------------------10p7---|
B:--7s12-------7~~~s12--------------------------8-10b12-10b12--------|
G:-------------------------7~---7b9r7~--7b9r7~-----------------------|
D:-------------------------------------------------------------------|
A:-------------------------------------------------------------------|
E:-------------------------------------------------------------------|

e:--10b12r10---------------------------------------------------------|
B:---------------12~~------8~----------------------------------------|
G:----------------------------9~-------------------------------------|
D:-------------------------------------------------------------------|
A:-------------------------------------------------------------------|
E:-------------------------------------------------------------------|

With [Riff 1]:

Silence shrouds the forest, as the ....[Fill 2]
[Fill 3]
The road is lined with peril, .....
[Fill 4]
The shadow of his nearness ....

[Solo] - This is the 'louder' or more prominent solo

e:-----------------------15-------------15b17-15b17~--17b19----------|
B:-15b17~---15b17-15b17~~~~~b17--------------------------------------|
G:-------------------------------------------------------------------|
D:-------------------------------------------------------------------|
A:-------------------------------------------------------------------|
E:-------------------------------------------------------------------|
slow bend
\/
e:-17b19-17-17b19~-17b19-17-17-17-15-----15---------------------------
|
B:------------------------------------17----17~---17b19---17b19~------
|
G:--------------------------------------------------------------------
|
D:--------------------------------------------------------------------
|
A:--------------------------------------------------------------------
|
E:--------------------------------------------------------------------
|

e:--------------------------------|----------------------------------|
B:-12-15~-------------------------|----------------------------------|
G:--------14-12~--------12-12~\---|----------------12b14~~14~~r12----|
D:----------------12h14-----------|-------12-14~~--------------------|
A:--------------------------------|-14~~-----------------------------|
E:--------------------------------|----------------------------------|

e:-------|-----------------------------------|-----------------------|
B:-------|-----------------------------------|-----------------------|
G:-12p9~-|--11b12r11--11b12r11b12r11--9~-----|-----------------------|
D:-------|-----------------------------------|--12~------------------|
A:-------|-----------------------------------|------10-12-10---------|
E:-------|-----------------------------------|---------------12~~\---|

e:-------------------------------------------------------------------|
B:-------------------------------------------------------------------|
G:-----------12~------------12---------------------------------------|
D:-12--12-12-----12-12h14~-----14~-----------------------------------|
A:-------------------------------------------------------------------|
E:-------------------------------------------------------------------|




Rush - III Return of the Prince

Rush - III Return of the Prince

[Intro]
E B(addE) A(addB) B(addE)
e:--------0---------0----------0----------0--------------------------|
B:----------0---------0----------0----------0------------------------|
G:----13---------8----------6----------8-----------------------------|
D:-14----------9----------7----------9-------------------------------|
A:-------------------------------------------------------------------|
E:-------------------------------------------------------------------|

[Riff 1]
E B(addE) A(addB) B(addE)
e:-------------------------------------------------------------------|
B:--12-12-12---7--7-----5--5--5-----7--7-----------------------------|
G:--13-13-13---8--8-----6--6--6-----8--8-----------------------------|
D:--14-14-14---9--9-----7--7--7-----9--9-----------------------------|
A:-------------------------------------------------------------------|
E:-------------------------------------------------------------------|

[Riff 2]
E B A B
e:--0--0--0----2--2---------------2-2--------------------------------|
B:--0--0--0----4--4----2----------4-4--------------------------------|
G:--1--1--1----4--4----2----------4-4--------------------------------|
D:--2--2--2----4--4----2----------4-4--------------------------------|
A:--2--2--2----2--2----0----------2-2--------------------------------|
E:--0--0--0----------------------------------------------------------|

[Intro] x5

With [Intro]:

Enter the Champion, Prince By-Tor ....

[Riff 1] and [Intro] x8

[Riff 1] and [Intro] w/ lyrics:

Stealthily attacking, By-Tor ....

[Riff 1] and [Intro] continue throughout; now joined by [Riff 2]

[Guitar Solo] - Did my best; Hope it's right!

e:-------------------------------------------------------------------|
B:-------------------------------------------------------------------|
G:-14b16~~--14b16--14b16--14b16~~~~r14-----------12h13p12-----12-----|
D:--------------------------------------------14-----------14--------|
A:-------------------------------------------------------------------|
E:-------------------------------------------------------------------|

e:--------------------------------------------------------------------
-|
B:--------------------------------------------------------------------
-|
G:-13~~---13b14~~-----13b14r13p12-------12----------------------------
-|
D:----------------------------------14-----14-12-14~~---14p12---------
-|
A:------------------------------------------------------------14p12---
-|
E:--------------------------------------------------------------------
-|

e:--------------------------------------------------------------------
--|
B:--------------------------------------------------------------------
--|
G:-----------------------------------------------9-9-9~--
11b13~13~13r11-|
D:-------------------------------------9~--9h11-----------------------
--|
A:-------------------9----------10h12---------------------------------
--|
E:--12h14p12~--10h12---12-12~-----------------------------------------
--|

e:-------------------------------------------------------------------|
B:------------------------------14p12~--12-14-12-12~--14p12-12~------|
G:-11b13~13~13r11p9--11b13r11----------------------------------------|
D:-------------------------------------------------------------------|
A:-------------------------------------------------------------------|
E:-------------------------------------------------------------------|

e:--14b16--14b16~--15b17-14b16-14-12--14--12------12~----------------|
B:--------------------------------------------14---------14p12~------|
G:---------------------------------------------------------------14--|
D:-------------------------------------------------------------------|
A:-------------------------------------------------------------------|
E:-------------------------------------------------------------------|

e:----------------12-----14p12----12--14p12----12--14p12----12-------|
B:-12~-14p12~--12----12--------12-----------12-----------12----------|
G:-------------------------------------------------------------------|
D:-------------------------------------------------------------------|
A:-------------------------------------------------------------------|
E:-------------------------------------------------------------------|

e:-14p12----12--14p12----14p12----12--14p12----12--14p12----12-------|
B:-------12-----------12-------12-----------12-----------12----------|
G:-------------------------------------------------------------------|
D:-------------------------------------------------------------------|
A:-------------------------------------------------------------------|
E:-------------------------------------------------------------------|

e:---14p12----12--14p12----12--14p12---------------------------------|
B:---------12-----------12-----------12------------------------------|
G:---------------------------------------14-14-----14----------------|
D:------------------------------------------16b18--16b18~~~~b18------|
A:-------------------------------------------------------------------|
E:-------------------------------------------------------------------|

e:-------------------------------------------------------------------|
B:-------------------------------------------------------------------|
G:-14-----14------------------------14---------14--------------------|
D:-16b18--16b18~~~r16--16p14----14--16b18r16~--16b18r16----14-14~----|
A:---------------------------16-------------------------16-----------|
E:-------------------------------------------------------------------|

e:-------------------------------------------------------------------|
B:-------------------------------------------------------------------|
G:-------------------------------------------------------------------|
D:--11-9-------------------------14----14-14------14----14----14-14--|
A:-------11-9----------12h14~-14----14-------14~-----14----14--------|
E:------------12-12~~------------------------------------------------|

e:---------------------------|---------------------------------------|
B:---------------------------|-12--15-14-12-12-14-15b17-15b17~~------|
G:---------------------------|---------------------------------------|
D:-----14-----11h12~--12h14~-|---------------------------------------|
A:-14-----14-----------------|---------------------------------------|
E:---------------------------|---------------------------------------|

e:-------------------------------------------------------------------|
B:-17b19~~--15b16-15-12-14-12----------------------------------------|
G:-----------------------------14b16r14p12----14-12~---------12h14~--|
D:-----------------------------------------14----------14-14---------|
A:-------------------------------------------------------------------|
E:-------------------------------------------------------------------|

e:-(16)r15p12--------------------------------------------------------|
B:------------15-15b17-15b17-15b17~--15p12----12-------12-------12---|
G:-----------------------------------------14----14b16----14b16------|
D:-------------------------------------------------------------------|
A:-------------------------------------------------------------------|
E:-------------------------------------------------------------------|

e:-------------------------------------------------------------------|
B:-------12-------12-------------------------------------------------|
G:-14b16----14b16----14p12----14~\-------9--11b13r11-----9~----------|
D:-------------------------14-------9h11--------------x--------11p9--|
A:-------------------------------------------------------------------|
E:-------------------------------------------------------------------|

e:-------------------------------------------------------------------|
B:-------------------------------------------------------------------|
G:-------------------------------------------------------------------|
D:------------6.--9~--[11]-[9]---------------------------------------|
A:-11.----7h9------------------[11]-[9]------------------------------|
E:--------------------------------------[12]~---9h12-12h14p12s9------|

Repeat until fade:

e:-------------------------------------------------------------------|
B:-------------------------------------------------------------------|
G:----------------(7)-8--9~------------------------------------------|
D:-------6--7--9-----------------------------------------------------|
A:-------------------------------------------------------------------|
E:---0~--------------------------------------------------------------|


Rush - II Under the Shadow

Rush - II Under the Shadow

Shreds of black cloud loom in ....

[Riff 1] [Riff 2]
e:-------------|-------------|--------------------------------|
B:-------------|-------------|--------------------------------|
G:-------------|-------------|--------------------------------|
D:-------------|-------------|--------------------------------|
A:--7~----7-7.-|--7~----7-5.-|-----------5-6-7----------------|
E:-----0-------|-----0-------|---3-5-6-7----------------------|

[Riff 3] [Riff 4]
e:------------|-------------|----------------------------------------|
B:------------|-------------|----------------------------------------|
G:------------|-------------|--12--12\-------------------------------|
D:------------|-------------|--12--12\-------------------------------|
A:-------7-7.-|--------7-5.-|--10--10\-------------------------------|
E:-0~-0-------|--0~-0-------|----------------------------------------|

Progression:

[Riff 1] x2
[Riff 1] x1 w/ [Riff 4] in between

[Riff 2] x1

[Riff 3] x1

With [Riff 1] x4:

Brooding in the tower, watching ...

[Riff 1] x1 w/ [Riff 4] in between

[Riff 2] x1

[Riff 3] x1 w/ [Riff 4] in between

[Riff 2] x1

[Bass] - played during and after gtr solo

G:-------------------------------------------------------------------|
D:--5~------------------------5~-------------------------------------|
A:----7--5-6-7------7~-5-6-7----7~-5-6-7-----------------------------|
E:--------------0-0----------------------3.--5.----------------------|

[Guitar Solo] - I only caught bits and pieces of it

e:-------------------------------------------------------------------|
B:------------------------------------------------------------13b15~-|
G:-------------------------------------------------------------------|
D:--14b16r14s12~~--[12]-[12]-[12]-12-12-12--12h14~~--14-14-14--------|
A:-------------------------------------------------------------------|
E:-------------------------------------------------------------------|

e:-------------------------------------------------------------------|
B:-13b15r13--13-12-10-----13p12p10-----------------------------------|
G:--------------------12--------------------??-----------------------|
D:-------------------------------------------------------------------|
A:-------------------------------------------------------------------|
E:-------------------------------------------------------------------|

e:---------------------------------------------------------15b17r15~-|
B:--15b17~--15-15b17-15b17~--15-15b17--15b17-17b19-15b17~------------|
G:-------------------------------------------------------------------|
D:-------------------------------------------------------------------|
A:-------------------------------------------------------------------|
E:-------------------------------------------------------------------|

e:-15b17r15~-----15p14p12.--14p12p10.--12p10p8--12-10b12~~-----------|
B:-------------------------------------------------------------------|
G:-------------------------------------------------------------------|
D:-------------------------------------------------------------------|
A:-------------------------------------------------------------------|
E:-------------------------------------------------------------------|

e:----------------------------------------|--------------------------|
B:----------------------------------------|--[12]-[11]-[12]-[11]-----|
G:-13p12p10h12b14--13p12p10h12b14---------|--------------------------|
D:-----------------------------------??---|--------------------------|
A:----------------------------------------|--------------------------|
E:----------------------------------------|--------------------------|

e:-------------------------------------------------------------------|
B:-[12]-[11]-[12]-[11]-[12]-[11]-[12]-[11]-[12]-[11]-[12]-[11]-[12]--|
G:-------------------------------------------------------------------|
D:-------------------------------------------------------------------|
A:-------------------------------------------------------------------|
E:-------------------------------------------------------------------|

e:-------------------------------------------|-----------------------|
B:-[12]~~---[12]-[11]--[(14)r12]-------------|-----------------------|
G:-------------------------------14p12-------|-9b11r9-9p7---7--------|
D:-------------------------------------14~~--|------------9----------|
A:-------------------------------------------|-----------------------|
E:-------------------------------------------|-----------------------|

e:------------------|------------------------------------------------|
B:------------------|------------------------------------------------|
G:-9b11r9-9p7---7---|--9b11r9b11r9b11r9~--9p7---9-9-7~----------etc--|
D:------------9-----|-------------------------9----------------------|
A:------------------|------------------------------------------------|
E:------------------|------------------------------------------------|


It just keeps going on and on! Anybody wanna take a crack at the rest?


(Repeat 3 times)
e:-------------------------------------------------------------------|
B:-------------------------------------------------------------------|
G:o-----------------------------------------------------------------o|
D:o--5~---------------------------5~--------------------------------o|
A:------7~--5-6-7-------7~-5-6-7-----7~--5-6-7-----------------------|
E:-----------------0-0--------------------------3.-5.----------------|

E5
e:-------------------------------------------------------------------|
B:-------------------------------------------------------------------|
G:-------------------------------------------------------------------|
D:--5~-4~-------5~-4~-------5~-4~---------2~-------------------------|
A:----------------------------------------2~-------------------------|
E:--------0--0.-------0--0.--------0--0.--0~-------------------------|

--

[Guitar Solo] - in the key of G

Sorry folks, it's just too fast for me.



But here is the end to part II:

e:----------------------------------------------------------|
B:----------------------------------------------------------|
G:o--------------------------------------------------------o|
D:o--------------------------------------------------------o|
A:-----------------------------------3----------------------|
E:-3h5-5-5-5--3h5-5-5-5--3h5-5-5-5------0--3----------------|


This also happens to be the bassline during the last solo.


Rush - The Pass

Rush - The Pass

From the CD 'Presto'
Music by Lee & Lifeson, Lyrics by Peart
Copyright 1989 Atlantic Recording Company & Anthem Entertainment

Tab by Todd Pafford, outergalen@protected.olga.net, with help on the
solo
from Elizabeth Winter. (She's got a way better ear than I do.) This
is
my own work and does not derive from any other publications.

| = not a standard bar line; just used to separate music
o \_
o / repeat sign (always look for these!)
/ = slide up
\ = slide down
b = bend
r = release
x = muted or not played

Overall this is a fairly simple and straight-forward song. It's built
around the following four chords:

F Bb F Eb
E |-8-----6-----8-----6-----|
B |-10----6-----10----8-----|
G |-10----7-----10----8-----|
D |-10----8-----10----8-----|
A |-8-----8-----8-----6-----|
E |-------6-----------------|


During the opening, the guitar is playing a simple punctuation to the
bass line using only the top three notes of the Bb and Eb chords with
upstrokes. As the lyrics come in the full chords are used. Listen
for
yourself; it'll make perfect sense when you hear it. Additionally,
during
the verses these chords include some noodling & arpeggiation. Play
whatever sounds good to you.

During the chorus the guitar plays the following arpeggiated riff:
"All of us get lost in the darkness..."
E |--------------------------|--------------------------|
B |o-------------------------|-------------------------o|
G |--------0--------0--------|--------0-----------0-----|
D |-----3--------3--------3--|-----2-----------2--------|
A |o-5--------5--------5-----|--0--------0--3--------3-o|
E |--------------------------|--------------------------|

For the second part of the chorus, the last few notes of the above
riff are dropped in favor of picking up the following chords, which
repeat for the next section:

"Turn around and walk the razor's edge..."
E |-8--8--8-----6--6------
B |-10-10-10----8--8------
G |-10-10-10----8--8------
D |-10-10-10----8--8------
A |-8--8--8-----6--6------
E |-----------------------


The solo is very melodic with no fast picking. I haven't bothered to
notate the meter, but the notes are all there. Just play along with
the CD and the rythm will become apparent. It sounds like Alex is
cranked in the studio so he gets a lot of feedback and other harmonics
that I haven't notated here.


E |-8-----6-----|--------------|-----------------------|--------------
---|
B |-10----6-----|--------------|-----------------------|--------------
---|
G |-10----7-----|--------------|-----------------------|--------------
---|
D |-10----8-----|--8--10/12----|--12-13/15-------------|--12-
13/15b16r15-|
A |-8-----8-----|--------------|--------------13\10----|--------------
---|
E |-------6-----|--------------|-----------------------|--------------
---|



E |-12----------|--12-------------|--11-13-15----|-
B |----11-15----|-----11-15-------|-----------11-|-
G |-------------|-----------10----|--------------|-
D |-------------|-----------------|--------------|-
A |-------------|-----------------|--------------|-
E |-------------|-----------------|--------------|-



E |-11-13-15----15-15----13-13----11-|--15-13-15-17-18----|-
B |----------11-------11-------11----|--------------------|-
G |----------------------------------|--------------------|-
D |----------------------------------|--------------------|-
A |----------------------------------|--------------------|-
E |----------------------------------|--------------------|-

.

Rush - The Trees

Rush - The Trees

From the CD 'Hemispheres'
Written by Lee/Lifeson/Peart
Mercury/Polygram Records 822547-2

Other tab was quite a bit lacking, so here is the full
version.
Previously tabbed by Patrick M. Ryan <pat@protected.olga.net> and
Frank
Schaapherder <sheep@protected.olga.net>. The key is D. Intro is played
on
a nylon- 6-stringed acoustic. The rest of the song is played by two
electric guitars [in unison] with distortion and chorus. Intro
courtesy of
Tony Kennedy <tonyk@protected.olga.net> and Rich Soto
<lerxst@protected.olga.net>
with some further corrections by myself.

Jimmy Pena - jimmy@protected.olga.net

| = not a standard bar line; just used to separate music
~ = vibrato or held note
x = percussive note with no pitch; muted note
h = hammer on
p = pull off
s = slide
b = bend string up to indicated pitch/fret
r = release bend to indicated string/fret
/ = slide up from infinity
\ = slide down into infinity
<5> = natural harmonic (lightly touch the string at fret indicated)
[5] = artificial harmonic (use thumb to follow through the pick
attack)
[x35553] = fret box; this is a C chord - this is the same as standard
tablature, only turned on its side. Tilt your head clockwise to
read.
PM = Palm Mute; lightly touch the strings at the bridge with the edge
of
the fret hand

Chord legend for the chords played during the verses:

A5(I) : [x02255] F# : [244322]
B5 : [x244xx] F#5 : [244xxx]
B/A : [x044xx] D : [xx0232]
G : [320033] C#m : [x46654]
G5 : [355xxx] A : [577655]
Asus2 : [x0220x] Bm : [x24432]
E : [022100] A5 : [x022xx]


[Intro]:
D F#m C#m
e:--2--------0--------|--2--------2-----|--4--------4--------|
B:-----3--------3-----|-----2--------2--|--------5-----5-----|
G:--------2-----------|-----------------|-----6--------------|
D:--0--------------0--|--------4--------|--------------------|
A:--------------------|--------------4--|--4--------------4--|
E:--------------------|--2--------------|--------------------|

A E G A
e:--5--------5-----|-----------0-----|--3-----------------|
B:-----5--------5--|--0-----0----0---|-----3-----2--------|
G:--------2--------|-----1-----------|-----------------2--|
D:--------------2--|---------------0-|--------------2-----|
A:--0--------------|-----------------|-------2---0--------|
E:-----------------|--0--------------|--3-----------------|

[lyrics enter]
Bm D F#m
e:------------2-|-----|--2h3p2--------2--------|--2--------2-----|
B:--3--3------3-|--3~-|---------3--------3-----|-----2--------2--|
G:--4--4--4-----|--4~-|------------2-----------|-----------------|
D:--------------|-----|--0------------------0--|--------4--------|
A:--2--2--0h2-2-|--2~-|------------------------|--------------4--|
E:--------------|-----|------------------------|--2--------------|

C#m A E
e:-----------4--------|--5--------5-----|--0--------0-----|
B:--5-----------5-----|-----5--------5--|--0-----0--------|
G:--------6-----------|--------2--------|-----1-----------|
D:-----6--------------|--------------2--|--------------0--|
A:--4--------------4--|--0--------------|-----------------|
E:--------------------|-----------------|--0--------------|

G A Bm D
e:--3-----------------|-----------2--|-----|--2--------3p2--------|
B:-----3-----2--------|--3--3-----3--|--3~-|--------3-------------|
G:-----------------2--|--4--4--4-----|--4~-|-----2----------------|
D:--------------2-----|--------------|-----|--0--------0----0--x--|
A:-------2---0--------|--2--2--0--2--|--2~-|----------------------|
E:--3-----------------|--------------|-----|----------------------|

F#m C#m A
e:--2--------2-----|-----------4--------|--5--------5-----|
B:-----2--------2--|--5-----------5-----|-----5--------5--|
G:-----------------|--------6-----------|--------2--------|
D:--------4--------|-----6--------------|--------------2--|
A:--------------4--|--4--------------4--|--0--------------|
E:--2--------------|--------------------|-----------------|

E G A Bm
e:---------0-------|--3-----------------|------------2--|-----|
B:-0-----0---0-----|-----3-----2--------|--3--3--3---3--|--3~-|
G:----1------------|-----------------2--|--4--4--4------|--4~-|
D:--------------0--|--------------2-----|---------------|-----|
A:-----------------|--------2--0--------|--2--2--0h2-2--|--2~-|
E:-0---------------|--3-----------------|---------------|-----|

D A Bm
e:--2--2h3p2-----|---------------|-----|
B:--3---------3--|--2--2h3p2-----|--3~-|
G:--2------------|--2---------2--|--4~-|
D:--0------------|--2------------|--4~-|
A:---------------|--0------------|--2~-|
E:---------------|---------------|-----|


Progression:

[Intro] x1 /w lyrics:

There is unrest in the forest; there ...

Then:
F#5
e:-------------------------------------------------------------------|
B:-------------------------------------------------------------------|
G:-------------------------------------------------------------------|
D:-------4-4-4-4--4-4-4-4--4-4-4-4--4-4-4----------------------------|
A:-------4-4-4-4--4-4-4-4--4-4-4-4--4-4-4----------------------------|
E:-------2-2-2-2--2-2-2-2--2-2-2-2--2-2-2--0-------------------------|

G5
e:-------------------------------------------------------------------|
B:-------------------------------------------------------------------|
G:-------------------------------------------------------------------|
D:-------5-5-5-5--5-5-5-5--5-5-5-5--5-5-5----------------------------|
A:-------5-5-5-5--5-5-5-5--5-5-5-5--5-5-5----------------------------|
E:-------3-3-3-3--3-3-3-3--3-3-3-3--3-3-3--0-------------------------|


Strum each chord [see chord legend above for fingering]:

A5(I) A5 A5 B5 B5 B5 G G D D A5(I)
A5(I)
The trouble with the Maples (and they're ....

A5(I) A5 B5 B5 B5 G D D A5(I)
A5(I)
They say the Oaks are just too ...

A5(I) A5 B5 B5 G D D
A5(I)
But the Oaks can't help their .....

F#5 (wallop) G5 (wallop)
And they wonder why the Maples ....

e:-5~----5--------5~------------|-------------------------------------
|
B:-5~----5--------5~---5--------|-2------------2-2-----2-2-----2-2----
|
G:-2~----2--2-2-2-2~---2--2-2-2-|-2------------2-2-----2-2-----2-2----
|
D:-2~----2--2-2-2-2~---2--2-2-2-|-2--2--2---2--2-2--2--2-2--2--2-2----
|
A:-0~----0--0-0-0-0~---0--0-0-0-|-0--0--0---x-------x-------x---------
|
E:------------------------------|-----------3-------2-------0---------
|

D D D F# F# C#m C#m C#m C#m A A A A
There is trouble in the forest, and ....

(at the end of this line play some pick
slides)
E E E E E E G G G A5 A5 Bm Bm B/A Bm Bm
as the Maples scream "Oppression!" .....

(Repeat D-F#-C#m-A chord progression/pattern)

e:--0-0-0--0-0-0---3-3-3---------------------------2-----------------|
B:--0-0-0--0-0-0---3-3-3-------------3-3-3--3--3---3---3-3-3-3-3-3-3-|
G:--1-1-1--1-1-1---0-0-0---2-2--2----4-4-4--4--4---4---4-4-4-4-4-4-4-
|etc
D:--2-2-2--2-2-2---0-0-0---2-2--2----4-4-4--4--4---4---4-4-4-4-4-4-4-|
A:--2-2-2--2-2-2---2-2-2---0-0--0----2-2-2--2--0---2---2-2-2-2-2-2-2-|
E:--0-0-0--0-0-0---3-3-3---------------------------------------------|

[Riff 2] - with flanger added

Bm A
e:--------------------------------------------|----------------------|
B:--------------------------------------------|--------2---2---------|
G:----4---4--------4--------4----4-------4----|------2---2-------2---|
D:------4--------4---4---------4-------4---4--|----2-----------2-----|
A:-2----------2----------2-----------2--------|--0-------------------|
E:--------------------------------------------|----------------------|

F#7(addB) A
e:------------------|-----------------------------|---------0--------|
B:--------2------2--|---------0--------------0----|------------0-----|
G:------2------2----|-----------3---------------3-|-------6------6---|
D:----2------2------|------4--------------4-------|------------------|
A:--0---------------|----4--------------4---------|----7-------------|
E:------------------|--2-------------2------------|--5---------------|

F#7(addB)
e:------------0------|------------0-----2-------------------0----2---|
B:--------------0----|------------------------0----------------------|
G:---------6------6--|--------3--------------------------3-----------|
D:------7------------|---------------4-----4------------------4------|
A:---7---------------|-----4--------------------------4------------4-|
E:-------------------|--2--------------------------2-----------------|

D F
e:--------0----10---------------0-----10--------|-----------1--------|
B:------7------------7--------7--------------7--|--------------1-----|
G:----7---------------------7-------------------|--------2-----------|
D:--0-------0-----0-------0--------0------0-----|--------------------|
A:----------------------------------------------|-----3--------------|
E:----------------------------------------------|--1-----------------|

A E
e:----------1---|--------0------------------0---------|-0-------0----|
B:------------1-|-0----0-----0-----------2-------0----|-0--0---------|
G:-------2------|-2--2-----2-----2------------2-------|-1------------|
D:--------------|-2------------2-------2--------------|-2----2----2--|
A:----3---------|-0------------------0-------------0--|-2---------2--|
E:-1------------|-------------------------------------|-0------------|

e:---------------------0---------------------------------------------|
B:--0-----------------------0----------------------------------------|
G:--------1---------1------------0-----------------------------------|
D:-----2----------2------2-----2-------------------------------------|
A:-----2-------------------------------------------------------------|
E:-----0-------0-----------------------------------------------------|

[Riff 3] - This is in 5/4 (I HATE 5/4!)

e:-------------------------------|-----------------------------------|
B:-------0--------------0--------|-------0---------------------------|
G:-----0--------0-----0--------0-|-----0-------0--------0-----0------|
D:--12------11-----14------11----|--12------11----12-14----11--------|
A:-------------------------------|-----------------------------------|
E:-------------------------------|-----------------------------------|

This is the pattern of measures and what chords are being
played.
Each set of braces represents a measure. [Riff 3] is played once
alone,
then along with these chords in this fashion. Remember this is 5/4.

A5 (A5) A5 (A5) A5 (A5) A5 B5 A5 D5 A5 B5 A5 D5
|---|---|---|---|---|---|---|---|---|---|---|---|---|---|
* * * * * * *** *** *** ***

* = Neil hits a crash cymbal
*** = Neil hits the ride & crash

Geddy repeats this 2 times; [Riff 3] is repeated 4 times along with
it.

G:--------------------|------------------|--------------|-------------
-|
D:o-------------------|------------------|--------------|--0-0-0-0----
o|
A:o-0--0--0--0--------|---2--2--2--2-----|--0-0-0-0-----|-------------
o|
E:--------------2--3--|--------------2-3-|----------2-3-|----------2-
3-|

[Riff 3] is played 4 times along with the solo:

[Guitar Solo] - Also in 5/4 time

e:-------------------------------------------------------------------|
B:-------------------------------------------------------------------|
G:-(16)r14~--------------7---6h7p6p0---0--2-[4]~~~---4--2h4p2p0--[9]~|
D:-------------------------------------------------------------------|
A:----------0----2~~-------------------------------------------------|
E:-------------------------------------------------------------------|

e:-------------------------------------------------------------------|
B:-15-[14h15p14]----------------12-------------(12)------------------|
G:---------------14-12---14--12----14-12--14b16----14b16-14~---11----|
D:-------------------------------------------------------------------|
A:-------------------------------------------------------------------|
E:-------------------------------------------------------------------|

6/4 time
e:------------------------------------------------------|------------|
B:------------------------------------------------------|------------|
G:-12b14------12--11h12p11s9--11~----6-7-9--7p6h7p6-4-6-|-7~--6h7h9--|
D:------------------------------------------------------|------------|
A:------------------------------------------------------|------------|
E:------------------------------------------------------|------------|

e:-------------------------------------------------------------------|
B:-------------------------------------------------------------------|
G:--6h7p6-4h6p4-2h4p2p0-2h4p2p0-2h4p2p0-2----------------------------|
D:-------------------------------------------------------------------|
A:-------------------------------------------------------------------|
E:-------------------------------------------------------------------|

(For reference: [Riff 3] is played 16 times total.)

[Riff 4]
G G A
e:--7--7---7--7-----7--7---7--7\--2--2--2--2--2----------------------|
B:--8--8---8--8-----8--8---8--8\--3--3--3--3--3---2------------------|
G:--7--7---7--7-----7--7---7--7\--2--2--2--2--2---2--2---------------|
D:--0------0--------0-------------0-----0-----0---2--2--------0-2-4p0|
A:------------------------------------------------0--0---2--4--------|
E:-------------------------------------------------------------------|
PM----------|

e:--7--7--7--7-----7--7---7--7\--2--2--2--2--2-----------------------|
B:--8--8--8--8-----8--8---8--8\--3--3--3--3--3---2-------------------|
G:--7--7--7--7-----7--7---7--7\--2--2--2--2--2---2--2---4--2--0------|
D:--0-----0--------0-------------0-----0-----0---2--2-----------4p2p0|
A:-----------------------------------------------0--0----------------|
E:-------------------------------------------------------------------|

e:--7--7--7--7-----7--7---7--7\--2--2--2--2--2-----------------------|
B:--8--8--8--8-----8--8---8--8\--3--3--3--3--3--2------8--7--5-------|
G:--7--7--7--7-----7--7---7--7\--2--2--2--2--2--2--2-----------7--6--|
D:--0-----0--------0-------------0-----0-----0--2--2-----------------|
A:----------------------------------------------0--0-----------------|
E:-------------------------------------------------------------------|
PM------------|

e:-7--7--7--7-----7--7---7--7\--2--2--2--2--2------------------------|
B:-8--8--8--8-----8--8---8--8\--3--3--3--3--3--2---------------------|
G:-7--7--7--7-----7--7---7--7\--2--2--2--2--2--2--2------------------|
D:-0-----0--------0-------------0-----0-----0--2--2--------0--2------|
A:---------------------------------------------0--0--2--4--------0---|
E:-------------------------------------------------------------------|

[Riff 5]
Bm B5 Bm/A D5 A5 B5 F#
e:-------------------------------------------------------------------|
B:-3--3---------3-3--------------------------------------------------|
G:-4--4--4--4---2-2--2-2---4-4-4---3---3---3---2-2-------------------|
D:-4--4--4--4---0-0--2-2---4-4-4---4---4---4---2-2-------------------|
A:-2--2--2--0--------0-0---2-2-2---4---4---4---0-0-------------------|
E:---------------------------------2---2---2-------------------------|

[Strum as above]:

A5(I) A5 B5 B5 B5 G D D A5(I) A5(I)
So the Maples formed a union ....

A5 A5 B5 B5 G G D D A5(I)
"The Oaks are just too greedy, we ....

A5(I) A5 B5 B5 B5 G D D A5(I)
Now there's no more Oak oppression....

Outro:

F#5 G5 A
Asus2
e:--------------------------------------------------------------------
--|
B:---------------------------------------------------------------2-2-
0~-|
G:---------------------------------------------------------------2-2-
2~-|
D:-4-4-4-4-4-4-4-4-4-4-4-4-4-4-4-4-5-5-5-5-5-5-5-5-5-5-5-5-5-5-5-2-2-
2~-|
A:-4-4-4-4-4-4-4-4-4-4-4-4-4-4-4-4-5-5-5-5-5-5-5-5-5-5-5-5-5-5-5-0-0-
0~-|
E:-2-2-2-2-2-2-2-2-2-2-2-2-2-2-2-2-3-3-3-3-3-3-3-3-3-3-3-3-3-3-3------
--|

F#5 (wallop) G5 (wallop) A A Asus2
And the trees are all kept....


Time Stand Still

Time Stand Still - Rush (from Hold Your Fire)
Transcription by Dan Newcombe (STDN@protected.olga.net)

(I know that this is not 100% accurate, but it is closer
than nothing. If you have corrections, please post them
in a nice civilized manner. No flames, they're a waste.)


To find out the chord rythyms, listen to the album.


Intro: (Riff 1)
(Clean tone, with a bit of delay and maybe chorus)
(Play 3 times)
-------------------------
--------------------2-2--
------4-----4-------2-2--
----4-----4---------2-2--
--------7------4-0--0-0--
--7----------------------

C# A E
I turn my back to the wind to catch ....

B
again Driven on ...
---0-------------------------------------------------------------
---0----------------------------------------------4-5^4--5^4--5^4
---2----------------------------------------------4---4----4----4
---2----------------------------------------------4---4----4----4
---1-------------------------------0--2--4--2--------------------
---0------------------0---2---4----------------------------------

B E A C#
pass the moment with a drink ....

A E
too thin, I'd like to pause, ....

pretend like some pilgram ....
---0-------------------------------------------------------------
---0----------------------------------------------4-5^4--5^4--5^4
---2----------------------------------------------4---4----4----4
---2----------------------------------------------4---4----4----4
---1-------------------------------0--2--4--2--------------------
---0------------------0---2---4----------------------------------

B E A
as if each step ....

(Guitar Tacet)
"Time Stand Still, I'm not ....

(Play riff 1 twice)
now Time ....

E A B
Freeze this moment a ....
-0-----0-----
---4-----4---
-----4-----4-
-------------
-------------
-------------

A F# E
Make each sensation a ....

B A E B A (Play riff 1)
Experience slips away ...

A A

(2nd verse same as the first as far as music goes.)
I turn my face to the sun, close ....

Chorus:
"Time stand still. I'm not .....

(Play riff one)
now

E A B
Freeze this moment a ....
-0-----0-----
---4-----4---
-----4-----4-
-------------
-------------
-------------

A F# E B
Make each impression a ....

E A B
Freeze this moment a ....

B A E B A (Play riff 1)
The innocence slips away Innocence ....

(Play riff one)
TIME STAND STILL

(Play riff 5 10 times)
Riff 5
----------------------------------------------
----2-4-2-4/5-4-2-4-2-------------------------
-4--------------------------------------------
----------------------------------------------
----------------------------------------------
----------------------------------------------

A B ???

(Play riff 5 4 times)

(The rest of the song is taken from the parts that come
after the slow part of the chorus. They are easy to figure
out, mostly E A and B chords, and I am too tired to
type them in)


From: lerxt@protected.olga.net (Phil Hodges)
Subject: TAB: Time Stand Still (Rush)

I got the TAB for "Time Stand Still" off the ftp site and noticed that
the intro was heinously incorrect. I realize the person who wrote it
said it wasn't 100% correct, and I am posting the correction in a
civilized manner :) I'll post more Rush TAB if there are enough people
interested. There's a pretty good-size collection going at the site,
and most of it's correct that I've seen, and I want to add to it as
much as I can. Alex Lifeson is my favorite guitarist, and I know how
to
play most of Rush's tunes.

E-|-------------------------------------|
B-|-------------0-----------------------|
G-|-----4-----4--------------2---2------|
D-|---4-----2---------2------2---2------|
A-|-2--------------4-----0---0---0------|
E-|-------------------------------------|
Let ring ------------|


Rush - Tom Sawyer

Tom Sawyer

From the CD 'Moving Pictures'
Written by Lee/Lifeson/Peart/Dubois
Mercury/Polygram Records 800048-2

Previously tabbed by James Bender (I think)
<jamesb@protected.olga.net>.
The key is E. Some kind of effect during the solo. You tell me.

| = not a standard bar line; just used to separate music
~ = vibrato or held note
x = percussive note with no pitch; muted note
h = hammer on
p = pull off
s = slide
b = bend string up to indicated pitch/fret
r = release bend to indicated string/fret
/ = slide up from infinity
\ = slide down into infinity
[5] = artificial harmonic (use thumb to follow through the pick
attack)
o \_
o / repeat sign (always look for these!)
[x35553] = fret box; this is a C chord - this is the same as standard
tablature, only turned on its side. Tilt your head clockwise to
read.

Chord legend:

Csus2 : [x3x03x]
G/B : [x2003x]
A7sus4 : [x0203x]

[Riff 1]
E5 D5 A7sus4 Csus2
e:-------------0~-----------------------------3~-------------0-------|
B:-------------0~--------------3~-------------3~-------------3-------|
G:-------------9~--------------2~-------------0~-------------0-------|
D:-------------9~--------------0~-------------2~-------------x-------|
A:-------------7~-----------------------------0~-------------3-------|
E:--0--0---0---0~---0--0---0--------0--0---0-------0--0---0----------|

[Riff 2]
E5 D
e:---------0------0--0--0--|--------------------2-2------|-----------|
B:---------0------0--0--0--|----------3--3--3---3-3---3--|-----------|
G:---------9--9---9--9--9--|----------2--2--2---2-2---2--|-----------|
D:---------9--9---9--9--9--|----------0--0--0---0-0---0--|-----------|
A:---------7--7---7--7--7--|-----------------------------|-----------|
E:-0-0--0-----0------------|--0-0--0---------------------|--0-0--0---|

e:--3-3--3----3------------------------|
B:--3-3--3----3--3---3-----------------|
G:--0-0--0----0--0---0-----------------|
D:--2-2--2----2--2---2-----------------|
A:--0-0--0----0--0---0-----------------|
E:-------------------------------------|

[Riff 3]

e:-------------------------------------------------------------------|
B:-----0----------0-----------0-------0---------0------0------0------|
G:-----4----------4-----------4-------4---------4------4------4------|
D:--------------------------2-----2----------2-----------------------|
A:-2----------2---------------------------3---------2------0---------|
E:-0-------2------------3----------------------------------------3---|

[Riff 4]
Asus2 Bsus2 A5 A5/G
e:-------------------------------------------------------------------|
B:--0----2~------2-2-2~---2~--2-2-2-2--2-----------------------------|
G:--2----4~------4-4-4~---4~--4-4-4-4--4----2-2-2-2---2--2--2--------|
D:--2----4~------4-4-4~---4~--4-4-4-4--4----2-2-2-2---2--2--2--------|
A:--0----2~------2-2-2~---2~--2-2-2-2--2----0-0-0-0---x--x--x--------|
E:----------------------------------------------------3--3--3--------|
B A A5/G A5 E5
e:--------------------------------------------------0~~--------------|
B:--4---4-4-4---2-2-2-2-----------------------------0~~--------------|
G:--4---4-4-4---2-2-2-2--2-2-2-2--2-2-2-2-----------4~~--------------|
D:--4---4-4-4---2-2-2-2--2-2-2-2--2-2-2-2-----2----------------------|
A:--2---2-2-2---0-0-0-0--x-x-x-x--0-0-0-0-----2----------------------|
E:-----------------------3-3-3-3--------------0----------------------|

Song progression:

(Keyboard opens song with flanged E; heard throughout song)

(Guitar Tacet)

A modern day warrior mean mean stride, today's Tom Sawyer mean mean
pride.

[Riff 1] x1

[Riff 1] x1 /w lyrics:

Though his mind is not for rent, ....

Csus2 G/B A7sus4 Csus2 G/B A7sus4
no re - ....

[Riff 2] x1

Csus2 G/B A7sus4 Csus2 G/B A7sus4

[Riff 3] x1

[Riff 3] x3 /w lyrics:

What you say about his company is ....

[Riff 4] x1 /w lyrics:

The world is, the world is, ....

(Guitar Tacet)

Today's Tom Sawyer he gets high on you and ....

Keyboard arranged for guitar: (play 4 times alone)

e:------------------------------------------|
B:--10p7-9----7------10~p7--9----7----------|
G:o--------9-----7------------9------------o|
D:o---------------------------------9------o|
A:------------------------------------------|
E:------------------------------------------|

[Fill 1] - after the keyboard plays the above part 4 times alone, this
fill
joins it in tandem four more times
E5 F#sus4
e:-------------------------------|
B:----------0-------------0------|
G:o---------4-------------4-----o|
D:o-2-------2-------------4-----o|
A:--2---2--------------4---------|
E:--0------------0--2~-----------|

[Fill 2] - played in tandem with keyboard part below

e:--------------------------------------------------|----------------|
B:--------------------------------------------------|----------------|
G:o------------------------------------------------o|----------------|
D:o----7---4---6-------4------7~----4--6-----------o|----------------|
A:-----------------7------5~--------------7---5-----|----------------|
E:-----------------------------------------------7--|----5\----------|

Keyboard arranged for guitar:

e:-------------------------------------------------------------------|
B:--10p7-9----7------10~p7--9--------------10p7--9-----7-------------|
G:---------9----7--------------9--7-----------------9------7~~~------|
D:-----------------------------------9-------------------------------|
A:-------------------------------------------------------------------|
E:-------------------------------------------------------------------|

[Guitar Solo] - I can hear some effect here!

e:-------------------------------------------------------------------|
B:-------------------------------------------------------10p9h10-/12\|
G:--------------------13p11h13s14--13---11h13p11s7s9~----------------|
D:--5~~s9~~s12~~~----------------------------------------------------|
A:-------------------------------------------------------------------|
E:-------------------------------------------------------------------|

e:-------------------------------------------------------------------|
B:----------------5b----3p0h2---3---[3b5]~~----5h7p5--[5]------[3]---|
G:---------------------------------------------------------[7]-------|
D:-------------------------------------------------------------------|
A:----------5--------------------------------------------------------|
E:--5---7------------------------------------------------------------|
*** bar dive

e:---------------------------------------12--------------------------|
B:-2p0--2--[3]-5~~--------15~--15p12-14------14~--12---15--12---12-14|
G:-------------------------------------------------------------------|
D:-------------------------------------------------------------------|
A:-------------------------------------------------------------------|
E:-------------------------------------------------------------------|

e:----------------------------------------------12--16b~~~~----------|
B:--14~~-----------15-12~-------12---[15]~~--------------------------|
G:--------------------------14---------------------------------------|
D:-------------------------------------------------------------------|
A:-------------------------------------------------------------------|
E:-------------------------------------------------------------------|

e:16-17-19--17-16-17--19-17-16-17-19-16-19-17-16--16-19-19b21~~21~~--|
B:-------------------------------------------------------------------|
G:-------------------------------------------------------------------|
D:-------------------------------------------------------------------|
A:-------------------------------------------------------------------|
E:-------------------------------------------------------------------|

e:-19b21~~~21~~21~~21~~21~~---19b21-19b21-19b21r19b21r19-19b21~21~21\|
B:-------------------------------------------------------------------|
G:-------------------------------------------------------------------|
D:-------------------------------------------------------------------|
A:-------------------------------------------------------------------|
E:-------------------------------------------------------------------|

[Fill 3]

e:--------------------------------------------------|----------------|
B:--------------------------------------------------|----------------|
G:o------------------------------------------------o|----------------|
D:o----7---4---6-------4------7~----4--6-----------o|----------------|
A:-----------------7------5~--------------7---5-----|-----------5--7-|
E:-----------------------------------------------7--|----5---7-------|

[Riff 1] x1

[Riff 1 x1 /w lyrics:

No his mind is not for rent to ....

Csus2 G/B A7sus4 Csus2 G/B A7sus4
but change is.

[Riff 2] x1

Csus2 G/B A7sus4 Csus2 G/B A7sus4

[Riff 3] x1

[Riff 3] x3 /w lyrics:

What you say about his company is what you ....

[Riff 4] x1 /w lyrics:

The world is, the world is, ....
(Guitar Tacet)

Exis the warrior, today's Tom Sawyer ....

E5 F#sus4
e:-------------------------------|
B:----------0------------0-------|
G:o---------4------------4------o|
D:o--2------2------------4------o|
A:---2--2-------------4----------|
E:---0----------0--2~------------|
day.

Repeat above ad infinitum while keyboard plays this:

e:-------------------------------------------------------------------|
B:--10p7-9----7~~~~~~~-----------------------------------------------|
G:---------9---------------9~~~~~~~~-----------------------11--------|
D:-----------------------------------------------------11------------|
A:--------------------------------------------------9----------------|
E:-------------------------------------------------------------------|

e:-------------------------------------------------------------------|
B:--10p7--9----7~~~~~~h9p7-------------------------------------------|
G:----------9--------------9~~~~~~~~~~~~~~~~-------------------------|
D:-------------------------------------------------------------------|
A:-------------------------------------------------------------------|
E:-------------------------------------------------------------------|

e:---17p14--16----14-------------------------------------------------|
B:-------------17----15---17~~~~~~~~~~~~~~~~~------------------------|
G:-------------------------------------------------------------------|
D:-------------------------------------------------------------------|
A:-------------------------------------------------------------------|
E:-------------------------------------------------------------------|


Virtuality

Song: Virtuality
Artist: Rush
Source: Test for Echo.

Transcription by Matt Rasmussen

Please send any comments to mattrasmussen@protected.olga.net

P = pull off
B = bend
\ = slide down
/ = slide up
~~~ = vibrato
N.H. = Natural Harmonic

Guitar I w/heavy distortion & chorus
Intro
Riff A
~~~ w/bar
|--------------------------------------------------
|--------------------------------------------------
|*-------------------------------------------------
|*------------P-------P-----------------P----------
|------------3-0-----5-0---7-----------3-0---------
|---0--3--4------3/5-----6----0--3--4------5---3---

End Riff A
~~~ w/bar
-----------------------------------------------|
-----------------------------------------------|
-------------------------------------------7--*|
-------------P-------P-----------------P---6--*|
------------3-0-----5-0---7-----------3-0--7---|
---0--3--4------3/5-----6----0--3--4-----------|



Verse 1
"Like a ship wrecked mariner...."
Riff B ~~~
|--------------------------------------------------
|--------------------------------------------------
|*-------------------------------------------------
|*------------P-------P-----------------P----------
|------------3-0-----5-0---7-----------3-0---------
|---0--3--4------3/5-----6----0--3--4------5---3---

End Riff B
---------------------------------------------------|
---------------------------------------------------|
-------------------------------------------8---7---|
-------------P-------P-----------------P---7---6---|
------------3-0-----5-0---7-----------3-0--8---7---|
---0--3--4------3/5-----6----0--3--4---------------|



Guitar I
Riff C End Riff
C
N.H.............................................................]
|---------------------------------------------------------------------
|
|---------------------------------------------------------------------
|
|*----------------------------------------------------(5)-------(5)--
*|
|*------------------------(5)-------------------------(5)--(5)--(5)--
*|
|--------------------(5)-------------------------(5)-------(5)--------
|
|--(5)--(5)-(5)-(4)------------(5)--(5)-(5)-(4)-----------------------
|



"Im a castaway........"
N.H.............................................................]
|---------------------------------------------------------------------
|
|---------------------------------------------------------------------
|
|*----------------------------------------------------(5)-------(5)--
*|
|*------------------------(5)-------------------------(5)--(5)--(5)--
*|
|--------------------(5)-------------------------(5)-------(5)--------
|
|--(5)--(5)-(5)-(4)------------(5)--(5)-(5)-(4)-----------------------
|




Chorus w/Guitar II (acoustic) playing the same thing
"Net boy Net girl......."
Riff D
|--------------------------------
|--------------------------------
|*---------5---------------------
|*--2------5------5------7---5---
|---2------3------5------7---5---
|---0-------------3------5---3---

"Let your fingers walk and...."
End Riff D
------------------------2--3-2--|
------------------------3--3-3--|
----------5-------------2--2-2-*|
---2------5------5------0--0-0-*|
---2------3------5--------------|
---0-------------3--------------|




Guitar III
"I can save the universe in a ..."
Riff E End Riff E
N.H...................................................]
|--------------------------------------------------------|
|--------------------------------------------------------|
|--------------------------------------------------------|
|--------------------------------------------------------|
|--------------------------------------------------------|
|--5-5-5-5-4-4-3-3-2.4-2.4-2-2-2.4-2.4-3-3-4-4-5-5-5-5---|




Bridge
"Lets dance tonight....."
Riff F
|-------------------------------------
|-------------------------------------
|*------------------------------------
|*--0-0-0-0---0-0-0-0-0-0-0-0-0-0-0---
|---3/5-5-5---5-5-5-5-5-5-5-5-5-5-5---
|-------------------------------------
End Riff F
---------------------------------|
---------------------------------|
--------------------------------*|
---0-0-0-0---0-0-0-0---0-0-0-0--*|
---5-3-3-5---5-3-3-0---0-3-3/5---|
---------------------------------|



Solo (play twice)
~~~
|-------------------------------------------10\-
|-----------9-----10-----------9-----10---------
|---9--9-9-----9-------9--9-9-----9------9------
|-----------------------------------------------
|-----------------------------------------------
|-----------------------------------------------
~~~
-----------------------------------------------|
--------9-----10------------9-----10-----9B\---|
9--9-9-----9--------9--9-9-----9------9--------|
-----------------------------------------------|
-----------------------------------------------|
-----------------------------------------------|

2nd time.
---0---0--0---|
---3---3--3---|
---2---2--2---|
---0---0--0---|
--------------|
--------------|



Outro
Riff G
|--------------------------------------------------
|--------------------------------------------------
|------------------------------------------8-8-7---
|-------------P-------P-----------------P--7-7-6---
|------------3-0-----5-0---7-----------3-0-8-8-7---
|---0--3--4------3/5-----6----0--3--4--------------

-----------------------------------------------|
-----------------------------------------------|
-------------------------------------------7---|
-------------P-------P-----------------P---6---|
------------3-0-----5-0---7-----------3-0--7---|
---0--3--4------3/5-----6----0--3--4-----------|



|-------------------------------------------------
|-------------------------------------------------
|------------------------------------------8-8-7--
|-------------P-------P-----------------P--7-7-6--
|------------3-0-----5-0---7-----------3-0-8-8-7--
|---0--3--4------3/5-----6----0--3--4-------------
End Riff G
w/echo repeat
~~~
--------------------------------------------------------|
--------------------------------------------------------|
--------------------------------------------------------|
----------P-------P-----------------P-------------------|
---------3-0-----5-0---7-----------3-0------------------|
0--3--4------3/5-----6----0--3--4------5--3-----5---3---|



Ok here are the riffs with the music:

Intro: Riff A

Riff B
Like a shipwrecked mariner ....

Riff C
I'm a castaway stranded ....

RIff A

Riff D
Net boy, net ....

Riff D
Net boy, net ...

Riff A

Riff B
Astronauts in weightlessness ....

Riff C and Riff E
I can save the universe in ...

Riff D
Net boy, net ....

Riff D
Net boy, net girl....

Bridge

Riff F
Let's dance ....

Riff F
Let's fly ...

Solo

Riff A

Riff B
Like a pair of vagabonds who ...

Riff C and Riff E
I can smell her perfume, I can ...

Riff D
Net boy, net ....

Riff D
Net boy, net girl...

Outro:Riff G


Vital Signs

Vital Signs"
Music: Lee/Lifeson
Lyrics: Peart
off of Moving Pictures
tabbed by: J-Punk (kalwin@protected.olga.net)


Notes:
This is kind of 2 guitars for 1. Guitar 1 (the top 3 strings) is
clean with chorusing. Guitar 2 (the bottom 3 strings) is distorted.
I supplied the counting (this one's tricky).

INTRO
(fade in) intro fill
1 2 3 4 1(2)+ + + 1 2 (3,4)
e:---8-8-8-8--|-8---6-3-4-|-4-1------|
B:---8-8-8-8-*|-8---6-3-4-|-4-1------|
G:4--8-8-8-8--|-8---7-3-5-|-5-1------|
D:4-----------|-----------|----------|
A:-----------*|-----------|----------|
E:------------|-----------|----------|


VERSE
2 4 2 + 1 3 1 + 4
e:-8-4-|-8-8-|-8-4-|-8-8-8-|
B:-8-4-|-8-8-|-8-4-|-8-8-8-|
G:-8-5-|-8-8-|-8-5-|-8-8-8-|
D:-----|-----|-----|-------|
A:-----|-----|-----|-------|
E:-----|-----|-----|-------|

Play verse x5 (fill to prechorus 5th x, I can't figure it out)


PRECHORUS
1 + 2 + 3 + 4 + 1 + 2 + 3 + 4 +
e:-----------------|------------------|
B:-----------------|-----------------*|
G:-----------------|------------------|
D:-8-8-8-8-8-8-8-8-|-8-8-8-8-------8--|
A:-8-8-8-8-8-8-8-8-|-8-8-8-8---6---8-*|
E:-6-6-6-6-6-6-6-6-|-6-6-6-6-8---8-6--|

Play a few times, then
1 + + + + + 3
e:-----------|---------|
B:-----------|---------|
G:-----------|---------|
D:-6-6-13-13-|-13-12-8-|
A:-6-6-13-13-|-13-12-6-|
E:-4-4-11-11-|-11-10-6-|

Gtr 2 can use X688XX and X577XX
for (11)(13)(13)XXX and (10)(12)(12)XXX
for tab sake, I used the high chords

Play Prechorus some more,then play the intro fill


CHORUS
2 + 4 2 + 4 + 2 + 4 2 + 4 +
e:-------8-|---------|-----6-|---------|
B:-------8-|---------|-----6-|---------|
G:-------8-|---------|-----7-|---------|
D:-10-10---|-8-8-8-8-|-8-8---|-6-6-6-6-|
A:-10-10---|-8-8-8-8-|-8-8---|-6-6-6-6-|
E:--8--8---|-6-6-6-6-|-6-6---|-4-4-4-4-|--8

then play prechorus fill,chorus, & intro riff

go back to verse & repeat song w/variations


OUTRO

rest a few bars, then
1 1 1 1 3
e:--8-|-6-|-4-|-4-6--|
B:--8-|-6-|-4-|-4-6-*|
G:--8-|-7-|-5-|-5-7--|
D:-10-|-8-|-6-|-6-8--|
A:-10-|-8-|-6-|-6-8-*|
E:--8-|-6-|-4-|-4-6--|

Repeat w/variations & ad-libs until fade.

=========================================
I'm tired and I don't have my cd right now, so this is not a
complete tab, but it's better than nothing. As always, send
corrections,comments,requests,etc. to J-Punk
(kalwin@protected.olga.net).
Flames not advised.


Rush
War Paint

War Paint
Presto
Music and Lyrics by Lee, Lifeson, and Peart

Transcribed by Tony Zimmermann, <97445@protected.olga.net>
Comments welcome

Electric Guitar 4 x
---3----3---------3----3----------2----2-----------||-----3-----------
---3----3---------3----3----------3----3-----------||-----3-----------
---0----0---------0----0----------2----2---------*-||-----0-----------
---0----0---------2----2----------0----0---------*-||-----2-----------
---2----2---------3----3---------------------------||-----3-----------
---3----3------------------------------------------||-----------------
G Cadd9 D Cadd9

(Cadd9)
Girl before ...

appraises her ....

G
child become ...

tries to fix ...

Cadd9
no more of ...

Cadd9
it has to be ...

G
she can keep ...

if she can ...



Paint her name....
----------------------------------------------------------------------
----------------------------------------------------------0-----------
---------0--2----0-------------0--2----0--------------5-------5-------
------4-------------4-------4-------------4---------5---5---5-----3---
---5-------------------5---------------------5----3---------------3-%-
------------------------------------------------------------------1---

Wounded pride....
----------------------------------------------------------------------
-----------------------0------------------------------------0---------
---------0--2----0----------------0--2----0-------------5-------5-----
------4-------------4----------4-------------4--------5---5---5---3---
---5------------------------5-------------------5---3-------------3-%-
------------------------------------------------------------------1---

All puffed up with vanity...
----------------------------------------------------------------------
----------------------------------------------------------------------
-----------0------------------0-----------------0--------------0------
--------5------5-----------3-----3------------3---3----------5---5----
-----5------------5-----3-----------3-------5-------5------7-------7--
--3------------------1-----------------1--6-----------6--8-----------8


Cadd9 (let ring)...

(Cadd9) (overdub palm mute quarter notes)
boy before ...

w/Lead Fig. 1 (Below)
checks his ...

G
polishes his ...

F G G F F = 133211
and the charger in ...

C F5/C F5/C C = 355xxx
no more lame ....F5/C = x3356x

C w/Lead Fig. 2 (Below)
it has to ...

G
he can take ...

F G
if he can ...


Lead Fig. 1 Lead Fig. 2
------------------------3----|----------------------------------------
3-
---0--------------------3----|----------------------------------------
3-
--(2)-(2)--0---------0--0----|----------------------------------------
0-
---F--rel------0-H-2----0----|--------0-2-P-0-3-P-0-2-P-0-------------
0-
------------------------2----|--0-2-3---------------------3-P-0-2-P-0-
2-
------------------------3----|----------------------------------------
3-

Opening chords, with acoustic playing palm-muted quarter notes:
G G G G
D D D D
Cadd9

[ G5: 355xxx ]
[ F5: 133xxx ]
[ C5: x355xx ]
[ F5/C:x3356x ]
[ rhythm here is eighth, quarter, eighth repeated ]

C5
. - . . - . . - . . -
boys and girls ...
F5/C C5
mistake conceit ...

G5 F5 G5 F5 G5
-ambition ...
(G5) F
-dreams for self-....[similar next stanza]



paint it black.... [solo]
----------------------------------------------------------------------
--12--12--------------12--13--15----13---12--13--15-(15)-(15)---------
--12--12----------------------------------------------F--rel.---<7>---
----------------------------------------------------------------------
---------------------------------------------------------------Harm.--
----------------------------------------------------------------------

-(14)-(14)-(14)-(14)--12----------------------------------------------
---H--rel.---H--rel.-----15--12-------------------------15-P-12-------
---------------------------------14-------------12-H-14---------14----
----------------------------------------12-H-14-----------------------
----------------------------------------------------------------------
----------------------------------------------------------------------

Harmonizer up a fifth Harmonizer off
-(19)~(19)~(19)~(19)--------------------------------------------------
---H---rel---H---rel--------------------------------------------------
----------------------------17--19--17------17------------------------
------------------------19--------------------------------------------
----------------------------------------19------19--------------------
----------------------------------------------------------------------

-(19)~(19)~(19)~(19)--------------------------------------------------
---H---rel---H---rel------------------18-P-15-------------------------
----------------------15-H-17-17-P-15---------17----19----17---12--5~~
-------------------------------------------------/17---/15--/10-------
----------------------------------------------------------------------
----------------------------------------------------------------------

Outro:
Include eighth note palm mute power chords on electric guitar:
G5 / / / / / / /
F5 / / / / / / /
Bb5/ / / / / / / [x133xx]
C5 / / / / / / /


What You're Doing

Rush - What You're Doing

Source: 'Rush' - [CD]
Music and Lyrics by: Lee/Lifeson
Publisher/Catalog No.: Mercury/Polygram Records 822541-2
Tuning: Standard tuning - [EADGBe] (low to high)
Main Time Signature: 4/4
Key Signature: E
Tone/Effects: Distortion
Tab Accuracy: Solo is missing
Tab History: The tab is a joint effort by the following people:
Branden
Robinson <branden@protected.olga.net>, Sean Jones
<seanj@protected.olga.net> and
Jimmy Pena <jimmy@protected.olga.net>.

Jimmy Pena - jimmy@protected.olga.net

+ Tab Legend +
+--------+-----------------------------------------------------
--+
| Symbol | Explanation
|
+--------+-----------------------------------------------------
--+
| | | Bar line separating measures of music
|
| h,s | Hammer on, Slide
|
| \ | Slide down from/into infinity
|
| = | Tremolo picking; Play the note rapidly and
repeatedly|
+--------+-----------------------------------------------------
--+
Rhythm:
w = whole note W = dotted whole
h = half note H = dotted half
q = quarter note Q = dotted quarter
e = eighth note E = dotted eighth
s = sixteenth note S = dotted sixteenth
t = 32nd note T = dotted 32nd
x = 64th note X = dotted 64th
^ = triplet

Song progression:

[Verse]:

e q E s s s e q E s E s s s e s E
e:----|--------------------------------|------------------------------
-|
B:----|--------------------------------|------------------------------
-|
G:----|--------------------------------|------------------------------
-|
D:----|--------------------------------|---------------------5--------
-|
A:----|---------------------5---7------|-------------------------7----
-|
E:-7\-|-0-------3-----4-5h7------------|-0-----0-3-----4-5h7-------7\-
-|

q E s s s e q E s E s s s e s E
e:---------------------------------|-------------------------------|
B:---------------------------------|-------------------------------|
G:---------------------------------|-------------------------------|
D:---------------------------------|---------------------5---------|
A:---------------------5---7-------|-------------------------7-----|
E:-0-------3-----4-5h7-------------|-0-----0-3-----4-5h7-------7\--|

A5
q q q q
e:-----------------------------------------------------------------|
B:-----------------------------------------------------------------|
G:-----------------------------------------------------------------|
D:------7----------------7---------------7-------------7-----------|
A:------7----------------7---------------7-------------7-----------|
E:------5----------------5---------------5-------------5-----------|
Well I see you standing ...

G5
q q q s E
e:-----------------------------------------------------------------|
B:-----------------------------------------------------------------|
G:-----------------------------------------------------------------|
D:------7----------------7---------------7-------------7-5---------|
A:------7----------------7---------------7-------------7-5---------|
E:------5----------------5---------------5-------------5-3---------|
Everything we do, ...

q E s s s e q E s E s s s e s E
e:---------------------------------|-------------------------------|
B:---------------------------------|-------------------------------|
G:---------------------------------|-------------------------------|
D:---------------------------------|---------------------5---------|
A:---------------------5---7-------|-------------------------7-----|
E:-0-------3-----4-5h7-------------|-0-----0-3-----4-5h7-------7\--|
you.

A5
q q q q
e:-----------------------------------------------------------------|
B:-----------------------------------------------------------------|
G:-----------------------------------------------------------------|
D:------7----------------7---------------7-------------7-----------|
A:------7----------------7---------------7-------------7-----------|
E:------5----------------5---------------5-------------5-----------|
Who do you think you are...

G5
q q q s E
e:-----------------------------------------------------------------|
B:-----------------------------------------------------------------|
G:-----------------------------------------------------------------|
D:------7----------------7---------------7-------------7-5---------|
A:------7----------------7---------------7-------------7-5---------|
E:------5----------------5---------------5-------------5-3---------|
Tryin' to run the town, ...

q E s s s e q E s E s s s e s E
e:---------------------------------|-------------------------------|
B:---------------------------------|-------------------------------|
G:---------------------------------|-------------------------------|
D:---------------------------------|---------------------5---------|
A:---------------------5---7-------|-------------------------7-----|
E:-0-------3-----4-5h7-------------|-0-----0-3-----4-5h7-------7\--|
down.

B5
q q q q
e:-----------------------------------------------------------------|
B:-----------------------------------------------------------------|
G:-----------------------------------------------------------------|
D:---------9----------------9--------------9-----------------9-----|
A:---------9----------------9--------------9-----------------9-----|
E:---------7----------------7--------------7-----------------7-----|
Well you think that you're right, ....

A5 G5
H+s E
e:-----------------------------------------------------------------|
B:-----------------------------------------------------------------|
G:-----------------------------------------------------------------|
D:--7----------------------------------------------------5---------|
A:--7----------------------------------------------------5---------|
E:--5----------------------------------------------------3---------|
Tell me something mister, why'd ....

q E s s s e q E s E s s s e s E
e:---------------------------------|-------------------------------|
B:---------------------------------|-------------------------------|
G:---------------------------------|-------------------------------|
D:---------------------------------|---------------------5---------|
A:---------------------5---7-------|-------------------------7-----|
E:-0-------3-----4-5h7-------------|-0-----0-3-----4-5h7-------7\--|
-tight...

A5
q q q q
e:-----------------------------------------------------------------|
B:-----------------------------------------------------------------|
G:-----------------------------------------------------------------|
D:-----7-----------------7----------7---------------7--------------|
A:-----7-----------------7----------7---------------7--------------|
E:-----5-----------------5----------5---------------5--------------|
say you've been tryin', ....

G5
q q q s E
e:-----------------------------------------------------------------|
B:-----------------------------------------------------------------|
G:-----------------------------------------------------------------|
D:--7-------------------7------------7-------------------7-5-------|
A:--7-------------------7------------7-------------------7-5-------|
E:--5-------------------5------------5-------------------5-3-------|
I think you need some groovin', who do .....
q E s s s e q E s E s s s e s E
e:---------------------------------|-------------------------------|
B:---------------------------------|-------------------------------|
G:---------------------------------|-------------------------------|
D:---------------------------------|---------------------5---------|
A:---------------------5---7-------|-------------------------7-----|
E:-0-------3-----4-5h7-------------|-0-----0-3-----4-5h7-------7\--|
now?

A5
q q q q
e:-----------------------------------------------------------------|
B:-----------------------------------------------------------------|
G:-----------------------------------------------------------------|
D:--------7--------------7---------------7--------------7----------|
A:--------7--------------7---------------7--------------7----------|
E:--------5--------------5---------------5--------------5----------|
Well you better start changin', you....

G5
q q q s E
e:-----------------------------------------------------------------|
B:-----------------------------------------------------------------|
G:-----------------------------------------------------------------|
D:------7----------------7-------------7-------------7-5-----------|
A:------7----------------7-------------7-------------7-5-----------|
E:------5----------------5-------------5-------------5-3-----------|
You better do some talkin' ....

q E s s s e q E s E s s s e s E
e:---------------------------------|-------------------------------|
B:---------------------------------|-------------------------------|
G:---------------------------------|-------------------------------|
D:---------------------------------|---------------------5---------|
A:---------------------5---7-------|-------------------------7-----|
E:-0-------3-----4-5h7-------------|-0-----0-3-----4-5h7-------7\--|
now.

B5
q q q q
e:-----------------------------------------------------------------|
B:-----------------------------------------------------------------|
G:-----------------------------------------------------------------|
D:---------9----------------9-----------9------------------9-------|
A:---------9----------------9-----------9------------------9-------|
E:---------7----------------7-----------7------------------7-------|
Yeah you think that you're right, .....
A5 G5
H+s E
e:-----------------------------------------------------------------|
B:-----------------------------------------------------------------|
G:-----------------------------------------------------------------|
D:--7----------------------------------------------------5---------|
A:--7----------------------------------------------------5---------|
E:--5----------------------------------------------------3---------|
Tell me something mister, ....

q E s s s e q E s E s s s e s E
e:---------------------------------|-------------------------------|
B:---------------------------------|-------------------------------|
G:---------------------------------|-------------------------------|
D:---------------------------------|---------------------5---------|
A:---------------------5---7-------|-------------------------7-----|
E:-0-------3-----4-5h7-------------|-0-----0-3-----4-5h7-------7\--|
-tight?

s s s s s s s s s s s s s s s s s s s s s s s s s s s s s s
e:-----------------------------------------------------------------|
B:-----------------------------------------------------------------|
G:-9-8-7-----------9-8-7-----------9-8-7---7-----------------------|
D:-------9-8-7-5---------9-8-7-5---------9---9-7-5-7-5---5---------|
A:-----------------------------------------------------7---7-5-----|
E:-------------------------------------------------------------7s5\|

q E s s s e q E s E s s s e s E
e:---------------------------------|-------------------------------|
B:---------------------------------|-------------------------------|
G:---------------------------------|-------------------------------|
D:---------------------------------|---------------------5---------|
A:---------------------5---7-------|-------------------------7-----|
E:-0-------3-----4-5h7-------------|-0-----0-3-----4-5h7-------7\--|

s s s s s s s s s s s s s s s s s s s s s s s s s s s s s s
e:-----------------------------------------------------------------|
B:-----------------------------------------------------------------|
G:-9-8-7-----------9-8-7-----------9-8-7---7-----------------------|
D:-------9-8-7-5---------9-8-7-5---------9---9-7-5-7-5---5---------|
A:-----------------------------------------------------7---7-5-----|
E:-------------------------------------------------------------7s5\|

q E s s s e q E s E s s s e s E
e:---------------------------------|-------------------------------|
B:---------------------------------|-------------------------------|
G:---------------------------------|-------------------------------|
D:---------------------------------|---------------------5---------|
A:---------------------5---7-------|-------------------------7-----|
E:-0-------3-----4-5h7-------------|-0-----0-3-----4-5h7-------7\--|

s s s s s s s s s s s s s s e
e:-----------------------------------------------------------------|
B:-----------------------------------------------------------------|
G:------------------------4-5-4-5-6-7-6----------------------------|
D:----------5-4-5-6-7-6-7---------------5\-------------------------|
A:-----------------------------------------------------------------|
E:-----------------------------------------------------------------|

q E s s s e q E s E s s s e s E
e:---------------------------------|-------------------------------|
B:---------------------------------|-------------------------------|
G:---------------------------------|-------------------------------|
D:---------------------------------|---------------------5---------|
A:---------------------5---7-------|-------------------------7-----|
E:-0-------3-----4-5h7-------------|-0-----0-3-----4-5h7-------7\--|

[Chorus]:
A5
q q q q
e:-----------------------------------------------------------------|
B:-----------------------------------------------------------------|
G:-----------------------------------------------------------------|
D:--------7--------------7---------------7--------------7----------|
A:--------7--------------7---------------7--------------7----------|
E:--------5--------------5---------------5--------------5----------|
I know what you're ....

G5
q q q s E
e:-----------------------------------------------------------------|
B:-----------------------------------------------------------------|
G:-----------------------------------------------------------------|
D:------7----------------7-------------7-------------7-5-----------|
A:------7----------------7-------------7-------------7-5-----------|
E:------5----------------5-------------5-------------5-3-----------|
all that you'v.....

q E s s s e q E s E s s s e s E
e:---------------------------------|-------------------------------|
B:---------------------------------|-------------------------------|
G:---------------------------------|-------------------------------|
D:---------------------------------|---------------------5---------|
A:---------------------5---7-------|-------------------------7-----|
E:-0-------3-----4-5h7-------------|-0-----0-3-----4-5h7-------7\--|
wrong.

A5
q q q q
e:-----------------------------------------------------------------|
B:-----------------------------------------------------------------|
G:-----------------------------------------------------------------|
D:--------7--------------7---------------7--------------7----------|
A:--------7--------------7---------------7--------------7----------|
E:--------5--------------5---------------5--------------5----------|
I don't know ....

G5
q q q s E
e:-----------------------------------------------------------------|
B:-----------------------------------------------------------------|
G:-----------------------------------------------------------------|
D:------7----------------7-------------7-------------7-5-----------|
A:------7----------------7-------------7-------------7-5-----------|
E:------5----------------5-------------5-------------5-3-----------|
oh, but ....

q E s s s e q E s E s s s e s E
e:---------------------------------|-------------------------------|
B:---------------------------------|-------------------------------|
G:---------------------------------|-------------------------------|
D:---------------------------------|---------------------5---------|
A:---------------------5---7-------|-------------------------7-----|
E:-0-------3-----4-5h7-------------|-0-----0-3-----4-5h7-------7\--|
long.

B5
q q q q
e:-----------------------------------------------------------------|
B:-----------------------------------------------------------------|
G:-----------------------------------------------------------------|
D:---------9--------------9-------------9----------------9---------|
A:---------9--------------9-------------9----------------9---------|
E:---------7--------------7-------------7----------------7---------|
Well you think that ....,

A5 G5
H+s E
e:-----------------------------------------------------------------|
B:-----------------------------------------------------------------|
G:-----------------------------------------------------------------|
D:--7----------------------------------------------------5---------|
A:--7----------------------------------------------------5---------|
E:--5----------------------------------------------------3---------|
Tell me something mister, ...

q E s s s e q E s E s s s e s E
e:---------------------------------|-------------------------------|
B:---------------------------------|-------------------------------|
G:---------------------------------|-------------------------------|
D:---------------------------------|---------------------5---------|
A:---------------------5---7-------|-------------------------7-----|
E:-0-------3-----4-5h7-------------|-0-----0-3-----4-5h7-------7\--|
make us so uptight....

[Guitar Solo] over verse progression:

A5
q q q q
e:-----------------------------------------------------------------|
B:-----------------------------------------------------------------|
G:-----------------------------------------------------------------|
D:------7----------------7---------------7-------------7-----------|
A:------7----------------7---------------7-------------7-----------|
E:------5----------------5---------------5-------------5-----------|

G5
q q q s E
e:-----------------------------------------------------------------|
B:-----------------------------------------------------------------|
G:-----------------------------------------------------------------|
D:------7----------------7---------------7-------------7-5---------|
A:------7----------------7---------------7-------------7-5---------|
E:------5----------------5---------------5-------------5-3---------|

q E s s s e q E s E s s s e s E
e:---------------------------------|-------------------------------|
B:---------------------------------|-------------------------------|
G:---------------------------------|-------------------------------|
D:---------------------------------|---------------------5---------|
A:---------------------5---7-------|-------------------------7-----|
E:-0-------3-----4-5h7-------------|-0-----0-3-----4-5h7-------7\--|

A5
q q q q
e:-----------------------------------------------------------------|
B:-----------------------------------------------------------------|
G:-----------------------------------------------------------------|
D:------7----------------7---------------7-------------7-----------|
A:------7----------------7---------------7-------------7-----------|
E:------5----------------5---------------5-------------5-----------|

G5
q q q s E
e:-----------------------------------------------------------------|
B:-----------------------------------------------------------------|
G:-----------------------------------------------------------------|
D:------7----------------7---------------7-------------7-5---------|
A:------7----------------7---------------7-------------7-5---------|
E:------5----------------5---------------5-------------5-3---------|

q E s s s e q E s E s s s e s E
e:---------------------------------|-------------------------------|
B:---------------------------------|-------------------------------|
G:---------------------------------|-------------------------------|
D:---------------------------------|---------------------5---------|
A:---------------------5---7-------|-------------------------7-----|
E:-0-------3-----4-5h7-------------|-0-----0-3-----4-5h7-------7\--|

B5
q q q q
e:-----------------------------------------------------------------|
B:-----------------------------------------------------------------|
G:-----------------------------------------------------------------|
D:---------9----------------9--------------9-----------------9-----|
A:---------9----------------9--------------9-----------------9-----|
E:---------7----------------7--------------7-----------------7-----|

A5 G5
H+s E
e:-----------------------------------------------------------------|
B:-----------------------------------------------------------------|
G:-----------------------------------------------------------------|
D:--7----------------------------------------------------5---------|
A:--7----------------------------------------------------5---------|
E:--5----------------------------------------------------3---------|

q E s s s e q E s E s s s e s E
e:---------------------------------|-------------------------------|
B:---------------------------------|-------------------------------|
G:---------------------------------|-------------------------------|
D:---------------------------------|---------------------5---------|
A:---------------------5---7-------|-------------------------7-----|
E:-0-------3-----4-5h7-------------|-0-----0-3-----4-5h7-------7\--|

s s s s s s s s s s s s s s s s s s s s s s s s s s s s s s s s
e:---------------------------------|---------------------------------|
B:---------------------------------|---------------------------------|
G:---------------------------------|---------------------------------|
D:---------------------------4-5-7-|---------------------------4-5-7-|
A:-------4-4-4-5-5-5-6-6-6-7-------|-------4-4-4-5-5-5-6-6-6-7-------|
E:-5-5-5---------------------------|-5-5-5---------------------------|

q E s s s e q E s E s s s e s E
e:---------------------------------|-------------------------------|
B:---------------------------------|-------------------------------|
G:---------------------------------|-------------------------------|
D:---------------------------------|---------------------5---------|
A:---------------------5---7-------|-------------------------7-----|
E:-0-------3-----4-5h7-------------|-0-----0-3-----4-5h7-------7\--|

s s s s s s s s s s s s s s s s s s s s s s s s s s s s s s s s
e:---------------------------------|---------------------------------|
B:---------------------------------|---------------------------------|
G:---------------------------------|---------------------------------|
D:---------------------------4-5-7-|---------------------------4-5-7-|
A:-------4-4-4-5-5-5-6-6-6-7-------|-------4-4-4-5-5-5-6-6-6-7-------|
E:-5-5-5---------------------------|-5-5-5---------------------------|

q E s s s e q E s E s s s e s E
e:---------------------------------|-------------------------------|
B:---------------------------------|-------------------------------|
G:---------------------------------|-------------------------------|
D:---------------------------------|---------------------5---------|
A:---------------------5---7-------|-------------------------7-----|
E:-0-------3-----4-5h7-------------|-0-----0-3-----4-5h7-------7\--|

s s s s s s s s s s s s s s s
e:-----------------------------------------------------------------|
B:-----------------------------------------------------------------|
G:-----------------------------------------------------------------|
D:----------------------------------7-9-7--------------------------|
A:----------------6-6-6-7-7-7-8-8-9--------------------------------|
E:----------7-7-7--------------------------------------------------|

q E s s s e q E s E s s s e s E
e:---------------------------------|-------------------------------|
B:---------------------------------|-------------------------------|
G:---------------------------------|-------------------------------|
D:---------------------------------|---------------------5---------|
A:---------------------5---7-------|-------------------------7-----|
E:-0-------3-----4-5h7-------------|-0-----0-3-----4-5h7-------7\--|

s s s s s s s s s s s s s s s s s s s s s s s s s s s s s s
e:-----------------------------------------------------------------|
B:-----------------------------------------------------------------|
G:-9-8-7-----------9-8-7-----------9-8-7---7-----------------------|
D:-------9-8-7-5---------9-8-7-5---------9---9-7-5-7-5---5---------|
A:-----------------------------------------------------7---7-5-----|
E:-------------------------------------------------------------7s5\|

q E s s s e q E s E s s s e s E
e:---------------------------------|-------------------------------|
B:---------------------------------|-------------------------------|
G:---------------------------------|-------------------------------|
D:---------------------------------|---------------------5---------|
A:---------------------5---7-------|-------------------------7-----|
E:-0-------3-----4-5h7-------------|-0-----0-3-----4-5h7-------7\--|

s s s s s s s s s s s s s s s s s s s s s s s s s s s s s s
e:-----------------------------------------------------------------|
B:-----------------------------------------------------------------|
G:-9-8-7-----------9-8-7-----------9-8-7---7-----------------------|
D:-------9-8-7-5---------9-8-7-5---------9---9-7-5-7-5---5---------|
A:-----------------------------------------------------7---7-5-----|
E:-------------------------------------------------------------7s5\|

q E s s s e q E s E s s s e s E
e:---------------------------------|-------------------------------|
B:---------------------------------|-------------------------------|
G:---------------------------------|-------------------------------|
D:---------------------------------|---------------------5---------|
A:---------------------5---7-------|-------------------------7-----|
E:-0-------3-----4-5h7-------------|-0-----0-3-----4-5h7-------7\--|

s s s s s s s s s s s s s s e
e:-----------------------------------------------------------------|
B:-----------------------------------------------------------------|
G:------------------------4-5-4-5-6-7-6----------------------------|
D:----------5-4-5-6-7-6-7---------------5\-------------------------|
A:-----------------------------------------------------------------|
E:-----------------------------------------------------------------|

q E s s s e q E s E s s s e s E
e:---------------------------------|-------------------------------|
B:---------------------------------|-------------------------------|
G:---------------------------------|-------------------------------|
D:---------------------------------|---------------------5---------|
A:---------------------5---7-------|-------------------------7-----|
E:-0-------3-----4-5h7-------------|-0-----0-3-----4-5h7-------7\--|

[Chorus]:

A5
q q q q
e:-----------------------------------------------------------------|
B:-----------------------------------------------------------------|
G:-----------------------------------------------------------------|
D:--------7--------------7---------------7--------------7----------|
A:--------7--------------7---------------7--------------7----------|
E:--------5--------------5---------------5--------------5----------|
I know what you're ...

G5
q q q s E
e:-----------------------------------------------------------------|
B:-----------------------------------------------------------------|
G:-----------------------------------------------------------------|
D:------7----------------7-------------7-------------7-5-----------|
A:------7----------------7-------------7-------------7-5-----------|
E:------5----------------5-------------5-------------5-3-----------|
all that you've ...

q E s s s e q E s E s s s e s E
e:---------------------------------|-------------------------------|
B:---------------------------------|-------------------------------|
G:---------------------------------|-------------------------------|
D:---------------------------------|---------------------5---------|
A:---------------------5---7-------|-------------------------7-----|
E:-0-------3-----4-5h7-------------|-0-----0-3-----4-5h7-------7\--|
wrong.

A5
q q q q
e:-----------------------------------------------------------------|
B:-----------------------------------------------------------------|
G:-----------------------------------------------------------------|
D:--------7--------------7---------------7--------------7----------|
A:--------7--------------7---------------7--------------7----------|
E:--------5--------------5---------------5--------------5----------|
I don't know what ...

G5
q q q s E
e:-----------------------------------------------------------------|
B:-----------------------------------------------------------------|
G:-----------------------------------------------------------------|
D:------7----------------7-------------7-------------7-5-----------|
A:------7----------------7-------------7-------------7-5-----------|
E:------5----------------5-------------5-------------5-3-----------|
oh, ....

q E s s s e q E s E s s s e s E
e:---------------------------------|-------------------------------|
B:---------------------------------|-------------------------------|
G:---------------------------------|-------------------------------|
D:---------------------------------|---------------------5---------|
A:---------------------5---7-------|-------------------------7-----|
E:-0-------3-----4-5h7-------------|-0-----0-3-----4-5h7-------7\--|
long.

B5
q q q q
e:-----------------------------------------------------------------|
B:-----------------------------------------------------------------|
G:-----------------------------------------------------------------|
D:---------9--------------9-------------9----------------9---------|
A:---------9--------------9-------------9----------------9---------|
E:---------7--------------7-------------7----------------7---------|
Well you think that ...

A5 G5
H+s E
e:-----------------------------------------------------------------|
B:-----------------------------------------------------------------|
G:-----------------------------------------------------------------|
D:--7----------------------------------------------------5---------|
A:--7----------------------------------------------------5---------|
E:--5----------------------------------------------------3---------|
Tell me something mister, ....

q E s s s e q E s E s s s e s E
e:---------------------------------|-------------------------------|
B:---------------------------------|-------------------------------|
G:---------------------------------|-------------------------------|
D:---------------------------------|---------------------5---------|
A:---------------------5---7-------|-------------------------7-----|
E:-0-------3-----4-5h7-------------|-0-----0-3-----4-5h7-------7\--|
make us so ....

q E s s s e q E s E s s s e s E
e:---------------------------------|-------------------------------|
B:---------------------------------|-------------------------------|
G:---------------------------------|-------------------------------|
D:---------------------------------|---------------------5---------|
A:---------------------5---7-------|-------------------------7-----|
E:-0-------3-----4-5h7-------------|-0-----0-3-----4-5h7-------7\--|
Yeah yeah!

[Outro]:

G5 A5 E5
e:--------------3-----|---------------5-----|----------------------|
B:--------------3-----|---------------5-----|----------------------|
G:--------------4-----|---------------6-----|--9=-------------9----|
D:--5-----------------|--7=-----------------|--9=-------------9----|
A:--5-----------------|--7=-----------------|--7=-------------7----|
E:--3-----------------|--5=-----------------|--0=-------------0----|


Where's My Thing?

Where's My Thing?
by Rush, from Roll The Bones


I have all the part tabbed here. You'll need to listen to the
song to know what order, and where to stick, and repeat the parts.
Good luck


play 5 times:

riff A
-------------------------------------------------------------------
---7---x--5--x--5--x--5--7--7--x--x--7--7--x--x--7--7--x--5--x--5--
---5---x--4--x--4--x--4--5--5--x--x--5--5--x--x--5--5--x--4--x--4--
---7---x--5--x--5--x--5--7--7--x--x--7--7--x--x--7--7--x--5--x--5--
-------------------------------------------------------------------
-------------------------------------------------------------------

play 5 times:

riff A, with; Riff B
--------------
--------------
--------------
--------------
--------------
--0--1--2--3--


times 2,3, and 4, also add,

--14--14--14--14--14--14--14--
--13--13--13--13--13--13--13--
--14--14--14--14--14--14--14--
------------------------------
------------------------------
------------------------------



---------------------------------------------------------------
--------------------------15----------12vvvvvvvvvvvvvvvvvvvv---
----------------------12---------------------------------------
------------------12-------------------------------------------
---------------------------------------------------------------
---------------------------------------------------------------


--------------------------------------------
------------15---13----12-------------------
-------12--------------------14-------------
---12---------------------------------------
--------------------------------------------
--------------------------------------------


-------------------------------------------------------------
--------------------------15---------12vvvvvvvvvvvvvvvvvvv---
----------------------12-------------------------------------
------------------12-----------------------------------------
-------------------------------------------------------------
-------------------------------------------------------------


------------12---------------------------15--15--15--
-----------------13----12----------------15--15--15--
-------12--------------------14----------------------
---12------------------------------------------------
-----------------------------------------------------
-----------------------------------------------------


Riff C
--------------------------
--------------------------
-----0-----0-----0-----0--
--5-----4-----2-----4-----
--------------------------
--------------------------

play;

Riff A Riff B
Riff A Riff C
Riff A Riff B
Riff A Riff C


----------------------------------------------------------------------
-------
----------------------------------------------------------------------
-------
----------------------------------------------------------------------
-------
----------------------------------------------------------------------
-------
---------------------7---------------------------5--------------------
-7-----
--3--5vvvv--0--3--5-----0--3--5vvvv--0--3--5--7-----3--5vvvv--0--3--5-
----0--


----------------------------------------------------------------------
-------
----------------------------------------------------------------------
-------
----------------------------------------------------------------------
-------
----------------------------------------------------------------------
-------
---------------------------5------------------------7-----------------
-------
--3--5vvvv--0--3--5--5--7-----0--3--5vvvv--0--3--5-----0--3--5vvvv--0-
-3--5--

--------
--------
--------
--------
-----5--
--7-----

solo;

v-- w/ bar v-- p.h.
---------------------------------------------
---------------------------------------------
--2vvvvvvvvvvvv\(-1)/vvvvvvvvvv--2-----2\----
---------------------------------------------
---------------------------------------------
---------------------------------------------


----------------------------------------------------------------------
--
------------------------------------------------12------15--15--12----
--
--12\/---14---12--12------------------12------------14--------------
14--
----------------------14--14vvvvvvvv----------------------------------
--
----------------------------------------------------------------------
--
----------------------------------------------------------------------
--


----------------------------------------------------------------------
------
----------------------------------------------------------------------
------
----------------------------------------------------------------------
------
----------------------------------------------------------------------
------
--5--5--3--5---5--3>(3.5)--------------------------5--5--3--5---5--
3>(3.5)--
---------------------------5--3>(3.5)--5--3>(3.5)---------------------
------


----------------------------------------------------------------------
-----
----------------------------------------------------------------------
-----
----------------------------------------------------------------------
-----
----------------------------------------------------------------------
-----
--------------5--5--3--5---5--3>(3.5)--------------------------5--5--
3--5--
--0--1--2--3---------------------------5--3>(3.5)--5--3>(3.5)---------
-----


--------------------------------------------------------------------
--------------------------------------------------------------------
--------------------------------------------------------------------
--------------------------------------------------------------------
---5--3>(3.5)-----5--5--3--5---5--3>(3.5)---------------------------
--------------------------------------------5--3>(3.5)--5--3>(3.5)--


----------------------------------------------------------------
----------------------------------------------------------------
----------------------------------------------------------------
----------------------------------------------------------------
--5--5--3--5---5--3>(3.5)--------------5--5--3--5---5--3>(3.5)--
---------------------------0--1--2--3---------------------------

--------------------------
--------------------------
--------------------------
--------------------------
--------------------------
--5--3>(3.5)--5--3>(3.5)--


play 2 times----------------------------------------------------------
--------|
----------------------------------------------------------14----------
---------
-------------------17-----14vvvvvvvvvv--------------------------15----
14-------
-------------14-------------------------------------14----------------
------16-
-------14-------------------------------------14----------------------
---------
----------------------------------------------------------------------
---------
----------------------------------------------------------------------
---------

Working Man

Working Man" by Rush
Tabbed by Jeff Blank (jfblank@protected.olga.net)
-------------------------------------------------

/ Slide up
\ Slide down
(0) Ghost/grace note

Intro/verse: (repeat several times)
-----------------------------------------------
-----------------------------------------------
-----------------------------------------------
-(2)-2--(2)-2----------(2)-2--(2)-2------------
-(2)-2--(2)-2----5-----(2)-2--(2)-2----3--3h5\- <-- Sometimes, the
hammer
-(0)-0--(0)-0--0---5\--(0)-0--(0)-0--0--------- is a slide
^^^
Omit this chord the first time at the very beginning of the song.


------------------------------------------------------
------------------------------------------------------
------------------------------------------------------
-2---2---2---2---0---0---0---0------------------------
---2---2---2---2---0---0---0---0---5---5---7--0-5/7\--
---------------------------------3---3---5---0--------
"They call me the working man
I guess that's what I am"


Song: Working Man
Artist: Rush
Album: Rush

Tab by: Janss Adams
I saw the tab for this song already posted and I checked it out. . I
have a few more things to add.

Main riff:
This riff is pretty easy. . .this is how I play it. . .(Heavy on the
distortion)
-----------------------------------
-----------------------------------
--1--1-1-1--------1--1-1-1--------
--2--2-2-2--------2--2-2-2-----_--
--2--2-2-2--5-----2--2-2-2--3-3-5
--0--0-0-0----5---0--0-0-0--------

------------------------------------------------------
------------------------------------------------------
------------------------------------------------------
------------------------------------------------------
--7---7---7---7---5---5---5---5-------5---5---7---7-
----7---7---7---7---5---5---5---5---3---3---5---0---


Solo 1- I think it's pretty accurate

--------------------------------------------------------------------
-1>(5)-5~-5>(7)-7~-7-8~-8-7-8-7-5-7-5---5------_------------------
---------------------------------------7---7-6-7-6-4--------_------
------------------------------------------------------5-7-5-7-5----
-----------------------------------------------------------------7--
--------------------------------------------------------------------

----------------------------------------------------------------10-
------------------------------------------_---------8-10!-10!-10!---
------------_---------_----------------7-9-7---7-9-----------------
--5-7!-5-7-7-5---5-7-7-5-----_--5-7>9-------9---------------------
---------------7----------7--5-7-----------------------------------
--------------------------------------------------------------------

--10-----10----_-------------------------------_--------------
------10!----10!-8--8---8-10!-8---8--12!--10!-10!-8---10-8-----
------------------9--9---------9-------------------9------7-9-
---------------------------------------------------------------
---------------------------------------------------------------
----------------------------------------------------------------

--------------------------------------------------------------------
-------------------_----------_-------_-----------------------------
---_--7-9!---9!-9!-9-7---7-9!-9!-7---9-9-7--7-----------_----_------
--7-9-----------------9----------9-------9---9-8-7-5-7-5--7-5-----
----------------------------------------------------------7----7-5~~
--------------------------------------------------------------------

I couldn't transcribe the rest of the solos to my satisfaction, so I
left them out. The only other part of the song I know is the
following. . .

-------------------------------------------------------------------
-------------------------------------------------------------------
-------------------------------------------------------------------
-------_----------_-------------------------_---------_------------
--7-7-7-5---7-7-7-5---7-5---5~~--7-5-7-7-7-5---7-7-7-5--7-5---5~
----------7----------7-----7-------------------7---------5-----7---

----------_----------_---------3~----------_----------_---------3~
-----5-5-5-3---5-5-5-3--5-3------5-3-5-5-5-3---5-5-5-3--5-3-----
-------------4---------4-----4-----------------4---------4----4----
-------------------------------------------------------------------
-7-5----------------------------------------------------------------
--------------------------------------------------------------------

_
--0-3-5-5!-5!-5-3---5-3-------3-----------
------------------5-----5-3-5--5-3-0-3-5!
------------------------------------------
------------------------------------------
------------------------------------------
------------------------------------------

-----------------------------------------
----------------------------------------
-----------------------------------------
-----------------------------------------
--7-7-7-7-5---5~--5--5------------------
-------------7----------7-5-3~--3-5-3-0-

Key-
~ vibrato
! bend
_ hammer on or pull off
> slide up

That's it. . .
Any questions?. . .Janss- ubeads@protected.olga.net

Xanadu

Xanadu tabs

Transcription by Charles Grogan (s3sijdp@protected.olga.net)


intro riff
1

--12-------11---------12------11--------
-----10-12----9--10------10-12---9--10--
9-------------------9-------------------
----------------------------------------
----------------------------------------
----------------------------------------


main theme
2 3

--0-|---------------------------------|-------------------------------
---
--0-|---------------------------------|-------------------------------
---
--4-|---------------------------------|-------------------------------
---
--2-|-0-------4-2-0---0---------------|-------------------------------
---
--2-|---4-2-0-------4---4-2-0->-4-2-0-|-------------------------------
---
0---|---------------------------------|-------------------------------
---


long scale after main theme
4

----------------------------------------------------------------0-|---
-------
----------------------------------------------------------------0-|---
-------
----------------------------------------------------------------4-|---
-------
0-------4-2-0---2-0-----0---------------------------------------2-|---
-------
--4-2-0-------4-----4-2---4-2-0-4-2-0---2-0-----0-------------2-2-|---
-------
--------------------------------------4-----4-2---4-2-0-4-2-0---0-|---
-------


chord work:

First time- guitar, percussion and synth come in
2nd-bass comes in
3rd-full drums kit, synth fades out
5

---5--2--0--0---
9--7--4--2--0---
9--7--4--2--4---
9--7--4--2--5---
7--5--2--0--5---
------------3---


Fourth time:
6

---5-2-0----0-----0-------0---0-----------0----0-0-0-
-9-7-4-2--2----0-------0-------0-----------0---0-0-0-
-9-7-4-2-2---4-------3-----1-----1-----------1-4-3-6-
-9-7-4-2-----5-----4-------2-----------2-------5-3-7-
-7-5-2-0-----5-----4-------2---------2---------5-2-7-
-------------3-----2-------0-------0-----------3-2-5-

7

-------0-----------0------0-0-0-
---------0-----------0----0-0-0-
-----------1-----------1--4-3-8-
-----2-----------2--------5-4-9-
---2-----------2----------5-4-9-
-0-----------0------------3-2-7-


Progression during lyrics ('To seek...')

8 9

0-0-------0---|-0-0-------0---|--------------------------------------
0-0-----0---0-|-0-0-----0---0-|--------------------------------------
1-3---3-------|-8-6---6-------|--------------------------------------
2-4-4---------|-9-7-7---------|--------------------------------------
2-4-----------|-9-7-----------|--------------------------------------
0-2-----------|-7-5-----------|--------------------------------------


In between '..Paradise' and 'I had heard..'

10

2-0-3-1-0------------------------------------------------------------
3-1-3-1-0------------------------------------------------------------
2-2-4-2-1------------------------------------------------------------
0-2-5-3-2------------------------------------------------------------
--0-5-3-2------------------------------------------------------------
----3-1-0------------------------------------------------------------


Then the chord sequence during 'I have heard...' etc. Here I've pinned
down all chords, for it's not all repetition.

11

E G A G E B A G A E B A G A E G A G E|


The second one runs from 'I scaled the frozen...'

12

E G A G E B A G A E B A G A E G A G E| E G


and going over in the picking passage.

13 14

------------------0-----------|-------------------0------------------
----3-------3-------3---------|-----3-------3-------3----------------
--2---0---2---0-------0-------|-------0-------0-------0--------------
0-----------------------------|---7-------7--------------------------
--------1-------3-------------|-5---------------3--------------------
------------------------3-2-0-|---------6---------------3-2-0--------

Two versions here, the first one is how Alex plays it, the second
one just a different fingering. See what suits you best.


Solo:

15

---------------------------------------------------------------------
-----------------17!--19!--19->-(21)!--21->-(22)!--------------------
---------------------------------------------------------------------
---------------------------------------------------------------------
---------------------------------------------------------------------
0->-(2)--0->-(2)-----------------------------------------------------


16

---------------------------------------------------------------------
------------------------------------------------------------_--------
-----9-11->-(13)-(13)->-11!------11-11-9-11->-(13)-(13)->-11-9----9!-
9-11------------------------9-11-------------------------------11----
---------------------------------------------------------------------
---------------------------------------------------------------------

17

---------------------------------------------------------------------
---------------------------------------------------------------------
7-6-4-------------------------------------11->-(12)->-11-9!----------
------7-5-4-5-4------------------------------------------------------
----------------7-5-4-0----------------------------------------------
------------------------2->-(3)-(3)->-2-0----------------------------

18

------------------------12-------------------------------------------
---------------------------------------------------------------------
9->-(11)--9->-(11)->-9!----------------------------------------------
---------------------------------------------------------------------
---------------------------------------------------------------------
---------------------------------------------------------------------

19 20
_
|-15-12----12-|-15->-(17)-15-15-15-15-14-12---------------------------
|-------15----|-----------------------------15-14-12------------------
|-------------|--------------------------------------14-13-12---------
|-------------|-----------------------------------------------14-13-12
|-------------|-------------------------------------------------------
|-------------|-------------------------------------------------------
[two times]

21 22
_ _
-----------|------------------------_------12-15----12-15----|-------
-----------|---------------_------12-15----------15-------15-|-------
-----------|---------_---12-14----------14-------------------|-------
-----------|---_---12-14-------14----------------------------|-------
14-13-12---|-12-14-------------------------------------------|-------
---------15|-------------------------------------------------|-------

23

---------------------------------------17->-(19)-(19)->-17-17-15->-14
17->-(19)--17->-(19)-17-17->-(19)->-17-------------------------------
---------------------------------------------------------------------
---------------------------------------------------------------------
---------------------------------------------------------------------
---------------------------------------------------------------------

24 25

--------|-----2-------------0-------------3----------------1---------
17-15->-|-------3-------------1-------------3------------1-----------
--------|---2--------------------------------------------------------
--------|-0---------------2------------------------------------------
--------|---------------0---------------5--------------3-------------
--------|-----------------------------3--------------1---------------

26 27

-------------------------16-|-0------
-17--------------17---------|-0------
-------16------------16-----|-4------
---14-----------------------|-2------
----------14----------------|-2------
----------------------------|-0------

------
Explanation on used symbols:

| - A pair of these indicate a part of music, not the usuals bars.
: - Indicates that a part is to be repeated. This may be ommited, you
should
hear it too.
_ - Indicates a hammer-on or pull-off (You should know which is
appropriate)
> - Indicates a bend-up or down or a slide. With a bend, the note to
bend to
is between '(' and ')'. Use the whammy for a downbend. With a
slide, the
follow-up note is the one to be slid to.
! - Indicates vibrato.
^ - Indicates harmonics. Is printed below the note.

For corrections or questions on the tabs, contact the author. If no e-
mail
address is included, contact Frank or Jason, addresses below.

For remarks, suggestions or additions on the tab 'archive', contact:

Frank or Jason
(schaaphe@protected.olga.net)
(bold%astroatc.uucp@protected.olga.net)

HAPPY PLAYING!!










YYZ

Rush - YYZ

Tabbed by: Jimmy Pena <jimmy@protected.olga.net>

Source: 'Moving Pictures' - [CD]
Music and Lyrics by: Lee/Peart
Publisher/Catalog No.: Mercury/Polygram Records 800048-2
Tuning: Standard - [EADGBe] (low to high)
Key Signature: C
Tone/Effects: Overdrive, Reverb
Tab History: Original transcription by Peter Seckel and Patrick M.
Ryan
<pat@protected.olga.net>. Also tabbed by Ian Schmidt.
Additions
and corrections made by Jimmy Pena <jimmy@protected.olga.net>.


Note: My intention here was not really to improve the old tab, but to
clean it up. I did add some parts, but basically just
reformatted
this tab and made it look nicer. So don't jump on me saying I
"stole" it from the other guy.


+ Tab Legend +
+--------------------------------------------------------------
--+
| Symbol | Explanation
|
+--------+-----------------------------------------------------
--+
| | | Bar line separating measures of music
|
| v | Finger or wrist vibrato
|
| x | Percussive note with no pitch; muted note
|
| h,p,s | Hammer on, Pull off, Slide
|
| b | Bend string up to indicated pitch/fret
|
| r | Release bend to indicated string/fret
|
| / | Slide up from/into infinity
|
| \ | Slide down from/into infinity
|
| [x] | Artificial "pinch" harmonic (use thumb to follow
|
| | through the pick attack)
|
| |o o| | Repeat signs; play the measures between these an
|
| |o o| | additional time
|
+--------+-----------------------------------------------------
--+

10/8 time (drums play -CROTALE- for two measures)

[repeat this measure 8 times]
e:-----------------------------|-------------------------|
B:-----------------------------|-------------------------|
G:o---------------------------o|-------------------------|
D:o---------------------------o|-------------------------|
A:---3---3-3-3---3-3-3-3-------|-3---3-3-3---3-3-3-3-----|
E:-----2-------2---------2-2---|-------------------------|

4/4 time
e:--------------------------------|-----------|-----------------------
----|
B:---------------------4-5-4------|-----------|-----------------------
----|
G:-----------------4-6-------6-5--|-4h5-4-----|-7-7-7-5-7-5-4---------
----|
D:-----------4-6-7----------------|-------5-4-|---------------7-5-4---
4\--|
A:-3-3-4-6-7----------------------|-----------|-----------------------
----|
E:--------------------------------|-----------|-----------------------
----|

e:---------------------|--------------------------|-------------------
----|
B:---------------------|--------------------------|-------------------
----|
G:-2-2---2-------------|-2-2---2------------------|-2-2---2-----------
----|
D:-----4---4-3-2-------|-----4---4-2--------------|-----4---4-3-2-----
----|
A:---------------4-----|-------------4-3-2--4-----|---------------4---
----|
E:---------------------|------------------------2-|-------------------
----|

e:------------------------|---------------------|---------------------
----|
B:------------------------|---------------------|---------------------
----|
G:-2-2---2----------------|-5-5---5-------------|-5-5---5-------------
----|
D:-----4---4-2------------|-----7---7-6-5-------|-----7---7-5---------
----|
A:-------------4-3-2--4---|----------------7----|-------------7-6-5--
7----|
E:----------------------2-|---------------------|---------------------
--5-|

e:---------------------|-------------------------------|--------------
----|
B:---------------------|-------------------------------|--------------
----|
G:--5-5---5------------|-5-5---5-----------------------|-2-2---2------
----|
D:------7---7-6-5------|-----7---7-5----5-5---5--5-----|-----4---4-3-
2----|
A:-----------------7---|-------------7------7------7---|--------------
-4--|
E:---------------------|-------------------------------|--------------
----|

e:-------------------------|-------------------|----------------------
----|
B:-------------------------|-------------------|----------------------
----|
G:--2-2---2----------------|-2-2---2-----------|-2-2---2--------------
----|
D:------4---4-2------------|-----4---4-3-2-----|-----4---4-2----------
----|
A:--------------4-3-2--4---|----------------4--|-------------4-3-2--4-
----|
E:-----------------------2-|-------------------|----------------------
-2--|

e:--------------------|------------------------|----------------------
|
B:--------------------|------------------------|----------------------
|
G:--5-5---5-----------|-5-5---5----------------|-5-5---5--------------
|
D:------7---7-6-5-----|-----7---7-5------------|-----7---7-6-5--------
|
A:-----------------7--|-------------7-6-5--7---|----------------7-----
|
E:--------------------|----------------------5-|----------------------
|

e:---------------------------|-------------------|--------------------
----|
B:---------------------------|--4--5--7----------|-4--5--7--7b9r7-----
----|
G:-5-5---5-------------------|o-----------2------|--------------------
----|
D:-----7---7-5---------------|o------------------|--------------------
----|
A:-------------7-6-5---7-----|-------------------|--------------------
----|
E:------------------------5--|-------------------|--------------------
----|

e:-----------------------|--------------------|-----------------------
----|
B:-4--5--7---------------|-4-5-7---7b9r7------|-1-3--/5--3h5p3h5s8----
----|
G:---------2-2-2-2-2h4---|--------------------|-----------------------
----|
D:-----------------------|--------------------|-----------------------
----|
A:-----------------------|--------------------|-----------------------
----|
E:-----------------------|--------------------|-----------------------
----|

e:-------------------------|---------------------|--------------------
-----|
B:-1-3-/5-3h5p3s5h8p5h8p5--|-1-3--/5--3h5p3h5s8--|-1-3-/5--
3h5p3s5h8p5h8p5-|
G:-------------------------|---------------------|--------------------
----o|
D:-------------------------|---------------------|--------------------
----o|
A:-------------------------|---------------------|--------------------
-----|
E:-------------------------|---------------------|--------------------
-----|

These two measures repeat twice, once ending in a bass fill, the 2nd a
drum
fill:

B C
e:--7--7---7----7----7---|--8--8---8----8----8---8-------|
B:--7--7---7----7----7---|--8--8---8----8----8---8-------|
G:o-8--8---8----8----8--o|--9--9---9----9----9---9-------|
D:o-9--9---9----9----9--o|--10-10--10---10---10--10------|
A:-----------------------|-------------------------------|
E:-----------------------|-------------------------------|

B C [drum fill]
e:--7--7-------------|--8--8----------------8------------------------|
B:--7--7-------------|--8--8----------------8------------------------|
G:o-8--8------------o|--9--9----------------9------------------------|
D:o-9--9---------7--o|--10-10---------8-----10-----------------------|
A:-------------9-----|-------------10--------------------------------|
E:-----------7-------|-----------8-----------------------------------|

B C [drum
fill]
e:------------7---------------7--------|----------8-------------8-----
8-|
B:------------7---------------7--------|----------8-------------8-----
8-|
G:o--x-x-x-x--8--x-x-x-x-x-x--8--x-x--o|--x-x-x-x-9-x-x-x-x-x-x-9-x-x-
9-|
D:o-----------------------------------o|------------------------------
--|
A:-------------------------------------|------------------------------
--|
E:-------------------------------------|------------------------------
--|

B C [bass fill]
e:------7-------7----|------8-------8-------8------------------------|
B:------7-------7----|------8-------8-------8------------------------|
G:o-----8-------8---o|------9-------9-------9------------------------|
D:o-----9-------9---o|------10------10------10-----------------------|
A:-------------------|-----------------------------------------------|
E:--7--------7-------|---8-------8-----------------------------------|

B [drum fills]
e:---7--7----7----|----8--8----8-----8-------------------------------|
B:---7--7----7----|----8--8----8-----8-------------------------------|
G:o--8--8----8---o|----9--9----9-----9-------------------------------|
D:o--9--9----9---o|----10-10---10----10------------------------------|
A:----------------|--------------------------------------------------|
E:----------------|--------------------------------------------------|

[Guitar Solo]

e:----10p8p7-|---------------------------------|----------------------
----|
B:-----------|-0h7h8h10-(10)p8h10p8p7h8p7------|-------------7-8-10-
7s8s7-|
G:-----------|---------------------------------|-9v------8h9----------
----|
D:-----------|---------------------------------|----------------------
----|
A:-----------|---------------------------------|----------------------
----|
E:-----------|---------------------------------|----------------------
----|

e:------------------------|-------------------|-----------------------
----|
B:---7---------7b8--------|-------------------|-0h1h4p1p0h4h7p4p0h12-
(12)v|
G:-9---9p8-8h9--------9p8-|-9v-----(9)\-------|-----------------------
----|
D:------------------------|-------------------|-----------------------
----|
A:------------------------|-------------------|-----------------------
----|
E:------------------------|-------------------|-----------------------
----|

(tremolo up 1/2 at *)
* * *

e:-----14-(14)-12s11h12p11----|-8-7-8-11-8-11--11--11--|-8v-----------
-|
B:(12)------------------------|------------------------|--------------
-|
G:----------------------------|------------------------|--------------
-|
D:----------------------------|------------------------|--------------
-|
A:----------------------------|------------------------|--------------
-|
E:----------------------------|------------------------|--------------
-|

e:--17-12h14p12h15p14p12h14p11h12-------------------|
B:--------------------------------16p13s12h13h15----|
G:--------------------------------------------------|
D:--------------------------------------------------|
A:--------------------------------------------------|
E:--------------------------------------------------|

e:-------------------------------------|--------------------------|
B:---15b17r15p13s12h13------12-13b15---|(15)r13p12s10h12---13-----|
G:-------------------------------------|--------------------------|
D:-------------------------------------|--------------------------|
A:-------------------------------------|--------------------------|
E:-------------------------------------|--------------------------|

e:--------------------------------------|
B:--13p12s10h1212p10s8h10p8p7-----(7)v--|
G:--------------------------------------|
D:--------------------------------------|
A:--------------------------------------|
E:--------------------------------------|

e:----------------------------------|---------------------------------
----|
B:-0h1h4p1p0h1p0--5h7p4p0h4h5-(5)v--|-(5)-4h5p4p0h10h13-
(13)p10h12p10s8---|
G:----------------------------------|---------------------------------
----|
D:----------------------------------|---------------------------------
----|
A:----------------------------------|---------------------------------
----|
E:----------------------------------|---------------------------------
----|

e:--------------------------------|
B:-10p7h8p7h8s10----(10)v---------|
G:--------------------------------|
D:--------------------------------|
A:--------------------------------|
E:--------------------------------|

e:--------------------------------------------------------------------
-------|
B:-
0h10h12p10p0h10h12p10p0h8h10p8p0h8h10p8p0h7h8p7p0h5h7p5p0h4h5p4p0h1h4p
1p0-|
G:--------------------------------------------------------------------
-------|
D:--------------------------------------------------------------------
-------|
A:--------------------------------------------------------------------
-------|
E:--------------------------------------------------------------------
-------|

Synth is tabbed above guitar here:

Am G/A D F
e:--5---------5-----------5--------8---------------------------------
|S
B:--5---------3-----------7--------10--------------------------------
|Y
G:--5---------4-----------7--------10--------------------------------
|N
D:--7---------5-----------7--------10--------------------------------
|T
A:-------------------------------------------------------------------
|H
E:-------------------------------------------------------------------|
| |
e:-------------------------------------------------------------------|
B:--10---------------<feedback>--------------------------------------
|G
G:-------------------------------------------------------------------
|T
D:-------------------------------------------------------------------
|R
A:-------------------------------------------------------------------|
E:-------------------------------------------------------------------|


e:---5-----------5------5---------8----------------------------------|
B:---5----6--5---3------7---------10---------------------------------|
G:---5----7--5---4------7---------10---------------------------------|
D:---7-----------5------7---------10---------------------------------|
A:-------------------------------------------------------------------|
E:-------------------------------------------------------------------|


e:---5-------5-----------5-------8-----------------------------------|
B:---5-------3-----------7-------10----------------------------------|
G:---5-------4-----------7-------10----------------------------------|
D:---7-------5-----------7-------10----------------------------------|
A:-------------------------------------------------------------------|
E:-------------------------------------------------------------------|
| |
e:-----------0-----------12---\5-8-----------------------------------|
B:-------------------------------------------------------------------|
G:-------------------------------------------------------------------|
D:-------------------------------------------------------------------|
A:-------------------------------------------------------------------|
E:-------------------------------------------------------------------|


e:--5---------5----------5---------8-----------10------8-------------|
B:--5---------3----------7---------10----------12------10------------|
G:--5---------4----------7---------10----------10------10------------|
D:--7---------5----------7---------10------------------10------------|
A:-------------------------------------------------------------------|
E:-------------------------------------------------------------------|
| |
e:--7b8r7------------------------------------------------------------|
B:------------8------------------------------------------------------|
G:-----------------7-------------------------------------------------|
D:-----------------------7---------10--------------------------------|
A:-------------------------------------------------------------------|
E:-------------------------------------------------------------------|

Coda!

e:---------------------|--------------------------|-------------------
----|
B:---------------------|--------------------------|-------------------
----|
G:-2-2---2-------------|-2-2---2------------------|-2-2---2-----------
----|
D:-----4---4-3-2-------|-----4---4-2--------------|-----4---4-3-2-----
----|
A:---------------4-----|-------------4-3-2--4-----|---------------4---
----|
E:---------------------|------------------------2-|-------------------
----|

e:------------------------|---------------------|---------------------
----|
B:------------------------|---------------------|---------------------
----|
G:-2-2---2----------------|-5-5---5-------------|-5-5---5-------------
----|
D:-----4---4-2------------|-----7---7-6-5-------|-----7---7-5---------
----|
A:-------------4-3-2--4---|----------------7----|-------------7-6-5--
7----|
E:----------------------2-|---------------------|---------------------
--5-|

e:---------------------|-------------------------------|--------------
----|
B:---------------------|-------------------------------|--------------
----|
G:--5-5---5------------|-5-5---5-----------------------|-2-2---2------
----|
D:------7---7-6-5------|-----7---7-5----5-5---5--5-----|-----4---4-3-
2----|
A:-----------------7---|-------------7------7------7---|--------------
-4--|
E:---------------------|-------------------------------|--------------
----|

e:-------------------------|-------------------|----------------------
----|
B:-------------------------|-------------------|----------------------
----|
G:--2-2---2----------------|-2-2---2-----------|-2-2---2--------------
----|
D:------4---4-2------------|-----4---4-3-2-----|-----4---4-2----------
----|
A:--------------4-3-2--4---|----------------4--|-------------4-3-2--4-
----|
E:-----------------------2-|-------------------|----------------------
-2--|

e:--------------------|------------------------|----------------------
|
B:--------------------|------------------------|----------------------
|
G:--5-5---5-----------|-5-5---5----------------|-5-5---5--------------
|
D:------7---7-6-5-----|-----7---7-5------------|-----7---7-6-5--------
|
A:-----------------7--|-------------7-6-5--7---|----------------7-----
|
E:--------------------|----------------------5-|----------------------
|

e:---------------------------|-------------------|--------------------
----|
B:---------------------------|--4--5--7----------|-4--5--7--7b9r7-----
----|
G:-5-5---5-------------------|------------2------|--------------------
----|
D:-----7---7-5---------------|-------------------|--------------------
----|
A:-------------7-6-5---7-----|-------------------|--------------------
----|
E:------------------------5--|-------------------|--------------------
----|

e:-----------------------|--------------------|-----------------------
----|
B:-4--5--7---------------|-4-5-7---7b9r7------|-1-3--/5--3h5p3h5s8----
----|
G:---------2-2-2-2-2h4---|--------------------|-----------------------
----|
D:-----------------------|--------------------|-----------------------
----|
A:-----------------------|--------------------|-----------------------
----|
E:-----------------------|--------------------|-----------------------
----|

e:-------------------------|---------------------|--------------------
-----|
B:-1-3-/5-3h5p3s5h8p5h8p5--|-1-3--/5--3h5p3h5s8--|-1-3-/5--
3h5p3s5h8p5h8p5-|
G:-------------------------|---------------------|--------------------
-----|
D:-------------------------|---------------------|--------------------
-----|
A:-------------------------|---------------------|--------------------
-----|
E:-------------------------|---------------------|--------------------
-----|

e:-------------------|------------------------|-----------------|
B:--4--5--7----------|[4][5][7][7b9r7]--------|-4--5--7---------|
G:------------2------|------------------------|---------2-------|
D:-------------------|------------------------|-----------------|
A:-------------------|------------------------|-----------------|
E:-------------------|------------------------|-----------------|

e:--------------------|----------------------|------------------------
-|
B:-4-5-7---7b9r7------|-1-3--/5--3h5p3h5s8---|-1-3-/5-3h5p3s5h8p5h8p5-
-|
G:--------------------|----------------------|------------------------
-|
D:--------------------|----------------------|------------------------
-|
A:--------------------|----------------------|------------------------
-|
E:--------------------|----------------------|------------------------
-|

e:------------------------------------------|-------------------------
-|
B:-1-3--/5--3h5p3h5s8v----------------------|-------------------------
-|
G:------------------------<feedback>--------|-------------------------
-|
D:------------------------------------------|-----------------4-2-----
-|
A:------------------------------------------|--3-3---3-3-3--------5-2-
-|
E:------------------------------------------|------2-------2----------
-|























You're Reading a Free Preview

Download