Hi, it's my first tab and it works for me, so thank you for reading. enjoy!

intro:
e|-------------------------------------|
B|-------------------------------------|
G|-------------------------------------|
D|-------------------------------------|
A|--9---9-8-7---7-6-5---4--3-----------|
E|--7---7-6-5---5-4-3---2--1-----------|
main riff:
e|-------------------------------------|
B|-------------------------------------|
G|-------------------------------------|
D|------------------5-7-5--------------|
A|----7-5-7---7-5-7-------7------------|
E|--0-------0--------------------------|
e|-------------------------------------|
B|-------------------------------------|
G|-------------------------------------|
D|-------------------------------------|
A|----7-5-7---7-5-7-5------------------|
E|--0-------0---------3-5-3------------|

e|-------------------------------------|
B|-------------------------------------|
G|-------------12~---------------------|
D|-------------------------------------|
A|-------5-7---------------------------|
E|--0-0--3-5---------------------------|

3 times

e|-------------------------------------|
B|-------------------------------------|
G|-------------------------------------|
D|-------------------------------------|
A|-------------------------------------|
E|--0-0--17--15--12--------------------|
it's my first one, so don't blame too strong:)

Sign up to vote on this title
UsefulNot useful