You are on page 1of 7

st

21

CENTURY BREAKDOWN TABS...

PART-1

C#5(v^v^v^)/ G#5(v^)/F#5(v^v^) ->x6


PART-2

A#5(v^v^v^)/Gb5(v^v^v^)/A#5(v^v^v^)/F#5(v^)G#5/G#5 ->x1
PART-3

C#5(v^v)/G#5(v^)/F#5(v^v^v^v^) ->x4
REPEAT PART-1 x1

C#5(v^v^v^)/ G#5(v^)/F#5(v^v^)
PART-4

e[---------------------------------------------]
B[--6-9-6-9-6-9-6-9-6-911-9-7-6---------------]->x1
REPET PART-1 x4

C#5(v^v^v^)/ G#5(v^)/F#5(v^v^) ->x4


REPEAT PART-2 x1

A#5(v^v^v^)/Gb5(v^v^v^)/A#5(v^v^v^)/F#5(v^)G#5/G#5 ->x1
REPEAT PART-3 x4

C#5(v^v)/G#5(v^)/F#5(v^v^v^v^) ->x4

PART-5

G#5///G#5 ->x1
PART-6

B[------------------------------------------]
G[------5-5-5-8-8-5-5-5-8-8-8-10-8-6-5------]
D[--6-6-------------------------------------]->x8
PART-7

e[------------------------------------------]
B[------6-6-6-9-9-6-6-6-9-9-9-11-9-7-6------]
G[--6-6-------------------------------------]->x4
PART-8

PM--------------------

C#5(v^v^v^v^)/F#5(v^)/G#5(v^)/C#5(v^v^v^v^)/G#5(v^v^v^v^) ->x4
REPEAT PART-7 x4

e[------------------------------------------]
B[------6-6-6-9-9-6-6-6-9-9-9-11-9-7-6------]
G[--6-6-------------------------------------]->x4

REPEAT PART-8 x4

PM--------------------

C#5(v^v^v^v^)/F#5(v^)/G#5(v^)/C#5(v^v^v^v^)/G#5(v^v^v^v^) ->x4
PART-9

F#5(v^v^v^)/G#5(v^)/C#5(v^v^v^v^) ->x3
PART-10

F#5(v^)/C#5/G#5 ->x4
PART-11

D[--6-------------------]
A[--6-------------------]
E[--4----8----11----14--] ->x1
PART-12

e[------------------------------------------------]
B[------------------------------------------------]
G[--8^-8^-8-8^-8-6--8-5---6-3---------------------]
D[----------------------6-----4--4-6v-6-4-6-3-----]
A[---------------------------------------------4--]
E[------------------------------------------------]

PART-13 X2

e[------------------------------------------------------]
B[--------6-------------6------------6------------------]
G[----6------6------6-----6------6-----6-----5---5-6-5--]
D[------6------6------6-----6------6-----6----6---------]
A[--4------------3--------------------------------------]
E[----------------------------6-------------------------]
F#5/F#5/A#5/A#5/C#5/C#5 E[---2/------------------------]
intro: C#5, G#5, F#5
C#5
G#5
F#5
Born into Nixon I was raised in hell
C#5
G#5
F#5
A welfare child where the teamsters dwelled
C#5
G#5
F#5
The last one born and the first one to run
C#5
G#5
F#5
My town was blind from refinery sun
A#5
F#5
My generation is zero
A#5
F#5
G#5
I never made it as a working class hero

C#5
G#5
F#5
21st century breakdown
C#5
G#5
F#5
I once was lost but never was found
C#5
G#5
F#5
I think I'm losing what's left of my mind
C#5
G#5
F#5
To the 20th century deadline
C#5
G#5
F#5
I was made of poison and blood
C#5
G#5
F#5
Condemnation is what I understood
C#5
G#5
F#5
Video games to the towers fall
C#5
G#5
F#5
Homeland security could kill us all
A#5
F#5
My generation is zero
A#5
F#5
G#5
I never made it as a working class hero
C#5
G#5
F#5
21st century breakdown
C#5
G#5
F#5
I once was lost but never was found
C#5
G#5
F#5
I think I'm losing what's left of my mind
C#5
G#5
F#5
To the 20th century deadline
G#5
C#5
We are the cries of the class of '13
G#5
C#5
Born in the year of humility
G#5
C#5
We are the desperate in the decline
G#5
Raised by the bastards of 1969

C#5
F#5
G#5
My name is 'Samuel' the long lost son
C#5
PM________
Born on the 4th of July
C#5
F#5
G#5
Raised in the era of heroes and cons
C#5
PM________
Left me for dead or alive
C#5
F#5
G#5
I am an nation, a worker of pride
C#5
PM_______
My debt to the status quo
C#5
F#5
G#5
The scars on my hands and a means to an end
C#5
PM_______
It's all that I have to show
C#5
F#5
G#5
I swallowed my pride And I choked on my faith
C#5
PM_______
Ive given my heart and my soul
C#5
F#5
G#5
I've broken my fingers And lied through my teeth
C#5
PM_________
The pillar of damage control
C#5
F#5
G#5
I've been to the edge And I've thrown the bouquet
C#5
PM_________
Of flowers left over from the grave
C#5
F#5
I sat in the waiting room Wasting my time

G#5

C#5
PM_________
And waiting for Judgment Day
F#5
G#5
C#5
F#5
I praise liber ty, the freedom to o
F#5
G#5
C#5
Is the song that strangles me
F#5
C#5
G#5
Well don't cross the line
F#5, C#5, G#5 (repeat x3)
C#5
C5
A#5
Oh, dream, American dream
G#5
F#5
I can't even sleep
A
C#5
From lights early dawn
C#5
C5
A#5
Oh, scream, America scream
G#5
F#5
Believe what you see
A
From heroes and cons

G#5
bey

C#5