You are on page 1of 7

TRACK NO.

3 – THIS IS HOW I DISAPPEAR

I. INTRO

Gtr 1
e|-----------------------------------|-----------------------------------|
B|-----------------------------------|-----------------------------------|
G|--7~~~~----------------------------|-----------------------------------|
D|--7~~~~----------------------------|--7~~~~----------------------------|
A|--5~~~~----------------------------|--7~~~~----------------------------|
E|-----------------------------------|--5~~~~----------------------------|
Gtr 2
e|-----------------------------------|-----------------------------------|
B|-----------------------------------|-----------------------------------|
G|--7-7-7-7-7-7-7-7-9-9-9-910101010--|--9-9-9-9-9-9-9-91010101012121212--|
D|--x-x-x-x-x-x-x-x-x-x-x-x-x-x-x-x--|--7-7-7-7-7-7-7-7-7-7-7-7-7-7-7-7--|
A|--5-5-5-5-5-5-5-5-5-5-5-5-5-5-5-5--|-----------------------------------|
E|-----------------------------------|-----------------------------------|

Gtr 1
e|-----------------------------------|-----------------------------------|
B|-----------------------------------|-----------------------------------|
G|-----------------------------------|-----------------------------------|
D|--5~~~~----------------------------|--3~~-------------7~~--------------|
A|--5~~~~----------------------------|--3~~-------------7~~--------------|
E|--3~~~~----------------------------|--1~~-------------5~~--------------|

Gtr 2
e|--3-3-3-3-3-3-3-3------------------|-----------------------------------|
B|--x-x-x-x-x-x-x-x-6-6-6-6-5-5-5-5--|-----------------------------------|
G|--3-3-3-3-3-3-3-3-3-3-3-3-3-3-3-3--|--7-7-7-7-7-7-7-7-9-9-9-9-9-9-9-9--|
D|-----------------------------------|--3-3-3-3-3-3-3-3-7-7-7-7-7-7-7-7--|
A|-----------------------------------|-----------------------------------|
E|-----------------------------------|-----------------------------------|

Here, I don’t know what guitar will carry on playing the previous (^ ^ ^)
riff, just figure out yourself. ;p

Gtr 1
e|------------------------------------|-----------------------------------|
B|------------------------------------|-----------------------------------|
G|------------------------------------|-----------------------------------|
D|------------------------------------|-----------------------------------|
A|--5~~~----7~~~----8~~~--7~~~--8~~~--|--12~~~~----------10~~--8~~~--7~~--|
E|------------------------------------|-----------------------------------|
Gtr 2
e|-----------------------------------|-----------------------------------|
B|-----------------------------------|-----------------------------------|
G|--7-7-7-7-7-7-7-7-9-9-9-910101010--|--9-9-9-9-9-9-9-91010101012121212--|
D|--x-x-x-x-x-x-x-x-x-x-x-x-x-x-x-x--|--7-7-7-7-7-7-7-7-7-7-7-7-7-7-7-7--|
A|--5-5-5-5-5-5-5-5-5-5-5-5-5-5-5-5--|-----------------------------------|
E|-----------------------------------|-----------------------------------|

Gtr 1
e|------------------------------------|-------------------------------------|
B|------------------------------------|-------------------------------------|
G|---------------------------------~--|-----------------(1414141414141414)--|
D|------------------------------------|-------------------------------------|
A|--5~~~--7~~~--8~~~--7~~~--5~~~-4~~--|--5~~~~------------------------------|
E|------------------------------------|-------------------------------------|
Gtr 2
e|--3-3-3-3-3-3-3-3------------------|-----------------------------------|
B|--x-x-x-x-x-x-x-x-6-6-6-6-5-5-5-5--|-----------------------------------|
G|--3-3-3-3-3-3-3-3-3-3-3-3-3-3-3-3--|--7-7-7-7-7-7-7-7-9-9-9-9-9-9-9-9--|
D|-----------------------------------|--3-3-3-3-3-3-3-3-7-7-7-7-7-7-7-7--|
A|-----------------------------------|------------------(play faster)----|
E|-----------------------------------|-----------------------------------|

Gtr 1
e|-----------------------------------|-----------------------------------|
B|-----------------------------------|-----------------------------------|
G|--7-7-7-7-7-7-7-7-7-7-7-7-7-7-7-7--|-----------------------------------|
D|--7-7-7-7-7-7-7-7-7-7-7-7-7-7-7-7--|--7-7-7-7-7-7-7-7-7-7-7-7-7-7-7-7--|
A|--5-5-5-5-5-5-5-5-5-5-5-5-5-5-5-5--|--7-7-7-7-7-7-7-7-7-7-7-7-7-7-7-7--|
E|-----------------------------------|--5-5-5-5-5-5-5-5-5-5-5-5-5-5-5-5--|
Gtr 2
e|-----------------------------------|-----------------------------------|
B|-----------------------------------|-----------------------------------|
G|--7-7-7-7-7-7-7-7-9-9-9-910101010--|--9-9-9-9-9-9-9-91010101012121212--|
D|--x-x-x-x-x-x-x-x-x-x-x-x-x-x-x-x--|--7-7-7-7-7-7-7-7-7-7-7-7-7-7-7-7--|
A|--5-5-5-5-5-5-5-5-5-5-5-5-5-5-5-5--|-----------------------------------|
E|-----------------------------------|-----------------------------------|

Gtr 1
e|-----------------------------------|-----------------------------------|
B|-----------------------------------|-----------------------------------|
G|-----------------------------------|-----------------------------------|
D|--5-5-5-5-5-5-5-5-5-5-5-5-5-5-5-5--|--3-3-3-3-3-3-3-3-7-7-7-7-7-7-7-7--|
A|--5-5-5-5-5-5-5-5-5-5-5-5-5-5-5-5--|--3-3-3-3-3-3-3-3-7-7-7-7-7-7-7-7--|
E|--3-3-3-3-3-3-3-3-3-3-3-3-3-3-3-3--|--1-1-1-1-1-1-1-1-5-5-5-5-5-5-5-5--|
Gtr 2
e|--3-3-3-3-3-3-3-3------------------|-----------------------------------|
B|--x-x-x-x-x-x-x-x-6-6-6-6-5-5-5-5--|-----------------------------------|
G|--3-3-3-3-3-3-3-3-3-3-3-3-3-3-3-3--|--7-7-7-7-7-7-7-7-9-9-9-9-9-9-9-9--|
D|-----------------------------------|--3-3-3-3-3-3-3-3-7-7-7-7-7-7-7-7--|
A|-----------------------------------|-----------------------------------|
E|-----------------------------------|-----------------------------------|

II. VERSE 1

Both guitars
e|------------------------------|-------------------------------|
B|------------------------------|-------------------------------|
G|--7~~~~-----------------------|--1414--1414--1414--1414--14\--|
D|--7~~~~-----------------------|---x-x---x-x---x-x---x-x---x---|
A|--5~~~~-----------------------|--1212--1212--1212--1212--12\--|
E|------------------------------|-------------------------------|

Then,
Gtr 1
e|-----------------------------------|------------------------------------|
B|-----------------------------------|------------------------------------|
G|--77777----------------------------|--55555-----------------------------|
D|-----------------55555-------------|------------------3333333322222222--|
A|-----------------------------------|------------------------------------|
E|-----------------------------------|------------------------------------|
Gtr 2
e|-------------------------------------|-------------------------------------|
B|-------------------------------------|-------------------------------------|
G|--7---7---7---7----------------------|--5---5---5---5----------------------|
D|--7---7---7---7----5---5---5---5-----|--5---5---5---5-----3-3-3-3-2-2-2-2--|
A|--5-555-555-555-55-5---5---5---5-----|--3-333-333-333-33--x-x-x-x-x-x-x-x--|
E|-------------------3-333-333-333-33--|--------------------1-1-1-1-0-0-0-0--|
PM| .. .. .. .. .. .. .. .. | .. .. .. ..

Gtr 1
e|-----------------------------------|----------------------------|
B|-----------------------------------|----------------------------|
G|--33333----------------------------|--14-1412-1210-10-9/10\9~~--|
D|-----------------22222-------------|---x--x-x--x-x--x-x--x-x----|
A|-----------------------------------|--12-1210-12-8--8-7/-8\7~~--|
E|-----------------------------------|----------------------------|
Gtr 2
e|-------------------------------------|-----------------------------------|
B|-------------------------------------|-----------------------------------|
G|--3---3---3---3----------------------|-----------------------------------|
D|--3---3---3---3----2---2---2---2-----|--7-7-7-7-7-7-7-7-7-7-7-7-7-7-7-7--|
A|--1-111-111-111-11-2---2---2---2-----|--7-7-7-7-7-7-7-7-7-7-7-7-7-7-7-7--|
E|-------------------0-000-000-000-00--|--5-5-5-5-5-5-5-5-5-5-5-5-5-5-5-5--|
PM| .. .. .. .. .. .. .. .. |

III. PRE-CHORUS

Both guitars
e|---------------------------------------|
B|---------------------------------------|
G|--7-----10------9------6------121212\--|
D|--x------x------x------x-------x-x-x---|
A|--5-5555-8-8888-7-7777-4-4444-101010\--|
E|---------------------------------------|
PM| .... .... .... .... |

IV. CHORUS

Here, I’m not 100% sure on Gtr 1 but I’m 99.9% sure on Gtr 2.

Gtr 1
e|-----------------------------------|-----------------------------------|
B|-----------------------------------|-----------------------------------|
G|--7-7-7-7-9-9-9-910101010-9-9-9-9--|--5-5-5-5-5-5-5-5-3-3-3-3-2-2-2-2--|
D|--x-x-x-x-x-x-x-x-x-x-x-x-x-x-x-x--|--x-x-x-x-x-x-x-x-x-x-x-x-x-x-x-x--|
A|--5-5-5-5-7-7-7-7-8-8-8-8-7-7-7-7--|--3-3-3-3-3-3-3-3-1-1-1-1-0-0-0-0--|
E|-----------------------------------|-----------------------------------|
Gtr 2
e|-----------------------------------|-----------------------------------|
B|-----------------------------------|-----------------------------------|
G|--7-7-7-7-7-7-7-7------------------|--5-5-5-5-5-5-5-5------------------|
D|--7-7-7-7-7-7-7-7-5-5-5-5-5-5-5-5--|--5-5-5-5-5-5-5-5-3-3-3-3-2-2-2-2--|
A|--5-5-5-5-5-5-5-5-5-5-5-5-5-5-5-5--|--3-3-3-3-3-3-3-3-3-3-3-3-2-2-2-2--|
E|------------------3-3-3-3-3-3-3-3--|------------------1-1-1-1-0-0-0-0--|

Gtr 1
e|------------------------------------|-----------------------------------|
B|------------------------------------|-----------------------------------|
G|--1010101014141414-7-7-7-7-9-9-9-9--|--7-7-7-7-7-7-7-7-5-5-5-5-5-5-5-5--|
D|---x-x-x-x-x-x-x-x-x-x-x-x-x-x-x-x--|--x-x-x-x-x-x-x-x-x-x-x-x-x-x-x-x--|
A|---8-8-8-812121212-5-5-5-5-7-7-7-7--|--5-5-5-5-5-5-5-5-3-3-3-3-3-3-3-3--|
E|------------------------------------|-----------------------------------|
Gtr 2
e|-----------------------------------|-----------------------------------|
B|-----------------------------------|-----------------------------------|
G|--7-7-7-7-7-7-7-7------------------|--5-5-5-5-5-5-5-5------------------|
D|--7-7-7-7-7-7-7-7-5-5-5-5-5-5-5-5--|--5-5-5-5-5-5-5-5-7-7-7-7-7-7-7-7--|
A|--5-5-5-5-5-5-5-5-5-5-5-5-5-5-5-5--|--3-3-3-3-3-3-3-3-7-7-7-7-7-7-7-7--|
E|------------------3-3-3-3-3-3-3-3--|------------------5-5-5-5-5-5-5-5--|

Gtr 1
e|-----------------------------------|-----------------------------------|
B|-----------------------------------|-----------------------------------|
G|--7-7-7-7-9-9-9-910101010-9-9-9-9--|--5-5-5-5-5-5-5-5-3-3-3-3-3-3-3-3--|
D|--x-x-x-x-x-x-x-x-x-x-x-x-x-x-x-x--|--x-x-x-x-x-x-x-x-x-x-x-x-x-x-x-x--|
A|--5-5-5-5-7-7-7-7-8-8-8-8-7-7-7-7--|--3-3-3-3-3-3-3-3-1-1-1-1-1-1-1-1--|
E|-----------------------------------|-----------------------------------|
Gtr 2
e|-----------------------------------|-----------------------------------|
B|-----------------------------------|-----------------------------------|
G|--7-7-7-7-7-7-7-7------------------|--5-5-5-5-5-5-5-5------------------|
D|--7-7-7-7-7-7-7-7-5-5-5-5-5-5-5-5--|--5-5-5-5-5-5-5-5-3-3-3-3-3-3-3-3--|
A|--5-5-5-5-5-5-5-5-5-5-5-5-5-5-5-5--|--3-3-3-3-3-3-3-3-3-3-3-3-3-3-3-3--|
E|------------------3-3-3-3-3-3-3-3--|------------------1-1-1-1-1-1-1-1--|

Gtr 1
e|------------------------------------|-----------------------------------|
B|------------------------------------|-----------------------------------|
G|--1010101014141414-7-7-7-7-9-9-9-9--|--7-7-7-7-7-7-7-7-5-5-5-5-5-5-5-5--|
D|---x-x-x-x-x-x-x-x-x-x-x-x-x-x-x-x--|--x-x-x-x-x-x-x-x-x-x-x-x-x-x-x-x--|
A|---8-8-8-812121212-5-5-5-5-7-7-7-7--|--5-5-5-5-5-5-5-5-3-3-3-3-3-3-3-3--|
E|------------------------------------|-----------------------------------|
Gtr 2
e|-----------------------------------|-----------------------------------|
B|-----------------------------------|-----------------------------------|
G|--7-7-7-7-7-7-7-7------------------|-----------------------------------|
D|--7-7-7-7-7-7-7-7-5-5-5-5-5-5-5-5--|--7-7-7-7-7-7-7-7-7-7-7-7-7-7-7-7--|
A|--5-5-5-5-5-5-5-5-5-5-5-5-5-5-5-5--|--7-7-7-7-7-7-7-7-7-7-7-7-7-7-7-7--|
E|------------------3-3-3-3-3-3-3-3--|--5-5-5-5-5-5-5-5-5-5-5-5-5-5-5-5--|

V. VERSE 2

Gtr 1
e|-----------------------------------|-----------------------------------|
B|-----------------------------------|-----------------------------------|
G|-----------------------------------|-----------------------------------|
D|--7-7-7-7-7-7-7-7------------------|--5-5-5-5-5-5-5-5------------------|
A|--5-5-5-5-5-5-5-5-5-5-5-5-5-5-5-5--|--3-3-3-3-3-3-3-3-3-3-3-3-3-3-3-3--|
E|------------------3-3-3-3-3-3-3-3--|------------------1-1-1-1-1-1-1-1--|
PM| . . . . . . . . . . . . . . . . | . . . . . . . . . . . . . . . . |
Gtr 2
e|--10~~~~----------12~~----13~~-----|--15~~~~---------13~~-----12~~-----|
B|-----------------------------------|-----------------------------------|
G|-----------------------------------|-----------------------------------|
D|-----------------------------------|-----------------------------------|
A|-----------------------------------|-----------------------------------|
E|-----------------------------------|-----------------------------------|

Gtr 1
e|-----------------------------------|-----------------------------------|
B|-----------------------------------|-----------------------------------|
G|-----------------------------------|-----------------------------------|
D|--3-3-3-3-3-3-3-3------------------|-----------------------------------|
A|--1-1-1-1-1-1-1-1-2-2-2-2-2-2-2-2--|--7-7-7-7-7-7-7-7-7-7-7-7-7-7-7-7--|
E|------------------0-0-0-0-0-0-0-0--|--5-5-5-5-5-5-5-5-5-5-5-5-5-5-5-5--|
PM| . . . . . . . . . . . . . . . . | . . . . . . . . . . . . . . . . |
Gtr 2
e|--13~~----10~~----12~~----10~~-----|--9~~~~----------------------------|
B|-----------------------------------|-----------------------------------|
G|-----------------------------------|-----------------------------------|
D|-----------------------------------|-----------------------------------|
A|-----------------------------------|-----------------------------------|
E|-----------------------------------|-----------------------------------|

Then,

Gtr 1
e|-----------------------------------|-------------------------------------|
B|-----------------------------------|-------------------------------------|
G|------------7---7----------10--10--|------12-----12--10-----7-----9--10--|
D|------------x---x-----------x---x--|-------x------x---x-----x-----x---x--|
A|--x-x-x-x-x-5-x-5-x-x-x-x-x-8-x-8--|--x-x-10-x-x-10-x-8-x-x-5-x-x-7-x-8--|
E|-----------------------------------|-------------------------------------|
Gtr 2
e|-----------------------------------|-----------------------------------|
B|-----------------------------------|-----------------------------------|
G|------------7---7------------------|------5-----5---5------------------|
D|------------7---7-----------5---5--|------5-----5---5-----3-----3---3--|
A|--5-5-5-5-5-5-5-5-----------5---5--|--3-3-3-3-3-3-3-3-----3-----3---3--|
E|------------------3-3-3-3-3-3-3-3--|------------------1-1-1-1-1-1-1-1--|
PM| . . . . . . . . . . . . | . . . . . . . . . . |

Gtr 1
e|------------------------------------|----------------------------|
B|------------------------------------|----------------------------|
G|------7----10---12-----9----10---9--|--14-1412-1210-10-9/10\9~~--|
D|------x-----x----x-----x-----x---x--|---x--x-x--x-x--x-x--x-x----|
A|--x-x-5-x-x-8-x-10-x-x-7-x-x-8-x-7--|--12-1210-10-8--8-7--8-7~~--|
E|------------------------------------|----------------------------|
Gtr 2
e|-----------------------------------|-----------------------------------|
B|-----------------------------------|-----------------------------------|
G|------3-----3---3------------------|-----------------------------------|
D|------3-----3---3-----2-----2---2--|--7-7-7-7-7-7-7-7-7-7-7-7-7-7-7-7--|
A|--1-1-1-1-1-1-1-1-----2-----2---2--|--7-7-7-7-7-7-7-7-7-7-7-7-7-7-7-7--|
E|------------------0-0-0-0-0-0-0-0--|--5-5-5-5-5-5-5-5-5-5-5-5-5-5-5-5--|
PM| . . . . . . . . . . |

(Repeat PRE-CHORUS and CHORUS)

BRIDGE THING

Gtr 2
e|--10----10----12----12----13----13----15----15-----|
B|-----13----13----13----13----13----13----13----13--|
G|---------------------------------------------------|
D|---------------------------------------------------|
A|---------------------------------------------------|
E|---------------------------------------------------|
(continued)
e|--15----15----15----15----13----13----12----12-----|
B|-----13----13----13----13----13----13----13----13--|
G|---------------------------------------------------|
D|---------------------------------------------------|
A|---------------------------------------------------|
E|---------------------------------------------------|
(continued)
e|--12----12----12----12----13----13----15----15-----|
B|-----13----13----13----13----13----13----13----13--|
G|---------------------------------------------------|
D|---------------------------------------------------|
A|---------------------------------------------------|
E|---------------------------------------------------|
(continued)
e|--15----15----15----15----13----13----12----12-----|
B|-----13----13----13----13----13----13----13----13--|
G|---------------------------------------------------|
D|---------------------------------------------------|
A|---------------------------------------------------|
E|---------------------------------------------------|
(continued)

e|--13----13----15----15----17----17----20----20-----|
B|-----13----13----13----15----15----15----15----15--|
G|---------------------------------------------------|
D|---------------------------------------------------|
A|---------------------------------------------------|
E|---------------------------------------------------|
(continued)
e|--20----20----18----18----17----17----15----15-----|
B|-----15----15----15----15----15----15----15----13--|
G|---------------------------------------------------|
D|---------------------------------------------------|
A|---------------------------------------------------|
E|---------------------------------------------------|
(continued)
e|--15----15----15----15----13----13----12----12-----|
B|-----13----13----13----13----13----13----13----13--|
G|---------------------------------------------------|
D|---------------------------------------------------|
A|---------------------------------------------------|
E|---------------------------------------------------|
(continued)
e|--10-10-10-10-10-10-10-10-10-10-10-10-10-10-10-10--|
B|---------------------------------------------------|
G|---------------------------------------------------|
D|---------------------------------------------------|
A|---------------------------------------------------|
E|---------------------------------------------------|

(Repeat PRE-CHORUS 2x)

Then, (2:46)
Both guitars (?)
e|------------------|------------------------|2x
B|------------------|------------------------|
G|------------------|------------------------|
D|------------------|------------------------|
A|--5---8--7--4-----|--5---8--7--4--4-0-4-0--|
E|---------------5--|------------------------|
Gtr 2 (comes in during the 2nd repeat ^^^)
e|--10-x-10-x-10-x-10--|
B|---------------------|
G|---------------------|
D|---------------------|
A|---------------------|
E|---------------------|

ADLIB THING
Gtr 1
e|------------------------------------------------------------------------|
B|------------------------------------------------------------------------|
G|--7777777777777777--------------------5555555555555555------------------|
D|--7777777777777777--5555555555555555--5555555555555555-----3~~-----2~~--|
A|--5555555555555555--5555555555555555--3333333333333333--3333~~--2222~~--|
E|--------------------3333333333333333--------------------1111~~--0000~~--|
PM| ... ... |
(continued)
e|--------------------------------------------------------------------------|
B|--------------------------------------------------------------------------|
G|--7777777777777777--------------------5555555555555555--------------------|
D|--7777777777777777--5555555555555555--5555555555555555--7777777777777777--|
A|--5555555555555555--5555555555555555--3333333333333333--7777777777777777--|
E|--------------------3333333333333333--------------------5555555555555555--|
Gtr 2
e|------------------------------------------|(repeat many times ^^)
B|------------------------------------------|
G|--7-----10------9------7------9----10/12--|
D|--x------x------x------x------x-----x--x--|
A|--5-5555-8-8888-7-7777-5-5555-7-77--8/10--|
E|------------------------------------------|
PM| .... .... .... .... .. |

Then it plays something like this:

e|-------------------|
B|-------------------|
G|-----10~~-----9~~--|
D|------x-------X----|
A|--888-8~~--7777~~--|
E|-------------------|
Then it plays the first part again.

(Repeat CHORUS 2x - listen to the song for some variations)

End on:
Both guitars
e|---------|
B|---------|
G|--7~~~~--|
D|--7~~~~--|
A|--5~~~~--|
E|---------|