INTRO

:
guitar 1:
E||-----------------------------------|
B||----------0-0-0-0------------------|
G||-2-2-2-2--2-2-2-2--2-2-2-2-2-2-1-1-|x2
D||-2-2-2-2--0-0-0-0--2-2-2-2-2-2-2-2-|
A||-------------------0-0-0-0-0-0-0-0-|
E||-2-2-2-2---------------------------|
guitar 2:
E||--------------------|
B||--------------------|
G||------7777----------|x2
D||-4444-7777-77777766-|
A||-4444-5555-77777777-|
E||-2222------55555555-|
VERSE:
I stare at my reflection in the mirror...
guitar 1:
E||-----------------------------------|
B||----------0-0-0-0--------------3-3-|
G||-2-2-2-2--2-2-2-2--2-2-2-2-2-2-2-2-|x2
D||-2-2-2-2--0-0-0-0--2-2-2-2-2-2-0-0-|
A||-------------------0-0-0-0-0-0-----|
E||-2-2-2-2---------------------------|
then:
Losing myself over a tiny error...
E||----------------------------------------------------------------------|
B||----------0-0-0-0----------------------------0-0-0-0------------------|
G||-2-2-2-2--2-2-2-2--2-2-2-2-1-1-1-1--2-2-2-2--2-2-2-2--2-2-2-2-2-2-1-1-|
D||-2-2-2-2--0-0-0-0--2-2-2-2-2-2-2-2--2-2-2-2--0-0-0-0--2-2-2-2-2-2-2-2-|
A||-------------------0-0-0-0-0-0-0-0--------------------0-0-0-0-0-0-0-0-|
E||-2-2-2-2----------------------------2-2-2-2---------------------------|

guitar 2:
E||--------------------| |----------------------------------------|
B||--------------------| |----------------------------------------|
G||------7777----------|x2|------7777----------------7777----------|
D||-4444-7777-77777766-| |-4444-7777-77776666--4444-7777-77777766-|
A||-4444-5555-77777777-| |-4444-5555-77777777--4444-5555-77777777-|
E||-2222------55555555-| |-2222------55555555--2222------55555555-|

.... E||-----9------9------9------9---| B||---7------7------7-------7----| G||-9------9------9-------9------|x4 D||------------------------------| A||------------------------------| E||------------------------------| VERSE 2: Brushing my hair.. who you are.CHORUS: Don't lose who you are. guitar 1: E||-----------------------------------| |-----------------------------------| B||----------0-0-0-0------------------| |----------0-0-0-0------------------| G||-2-2-2-2--2-2-2-2--2-2-2-2-2-2-1-1-|x3|-2-2-2-2--2-2-2-2--2-2-2-2-1-1-1-1-| D||-2-2-2-2--0-0-0-0--2-2-2-2-2-2-2-2-| |-2-2-2-2--0-0-0-0--2-2-2-2-2-2-2-2-| A||-------------------0-0-0-0-0-0-0-0-| |-------------------0-0-0-0-0-0-0-0-| E||-2-2-2-2---------------------------| |-2-2-2-2---------------------------| guitar 2: E||--------------------| |--------------------| B||--------------------| |--------------------| G||------7777----------|x3|------7777----------| D||-4444-7777-77777766-| |-4444-7777-77776666-| A||-4444-5555-77777777-| |-4444-5555-77777777-| E||-2222------55555555-| |-2222------55555555-| CHORUS(Same as before but solo plays constantly) BRIDGE: Theirs no egos..... who you are. do I look perfect?. guitar 1: E||-----------------------------------| B||----------0-0-0-0------------------| G||-2-2-2-2--2-2-2-2--2-2-2-2-2-2-1-1-|x6 D||-2-2-2-2--0-0-0-0--2-2-2-2-2-2-2-2-| A||-------------------0-0-0-0-0-0-0-0-| E||-2-2-2-2---------------------------| guitar 2: E||--------------------| B||--------------------| G||------7777----------|x6 D||-4444-7777-77777766-| A||-4444-5555-77777777-| E||-2222------55555555-| SOLO: who you are.

guitar 1: E||-0000-2222-2222-0000--0000-2222-22222222-| B||-0000-2222-3333-0000--0000-2222-33333333-| G||-1111-2222-2222-2222--1111-2222-22222222-| D||-2222-4444-0000-2222--2222-4444-00000000-| A||-2222-4444------0000--2222-4444----------| E||-0000-2222------------0000-2222----------| guitar 2: E||-----------------------------------------| B||-----------------------------------------| G||-----------7777-----------------77777777-| D||-2222-4444-7777-7777--2222-4444-77777777-| A||-2222-4444-5555-7777--2222-4444-55555555-| E||-0000-2222------5555--0000-2222----------| then: that's my own... guitar 1: E||-----------------------------------| B||----------0-0-0-0------------------| G||-2-2-2-2--2-2-2-2--2-2-2-2-2-2-1-1-|x4 D||-2-2-2-2--0-0-0-0--2-2-2-2-2-2-2-2-| A||-------------------0-0-0-0-0-0-0-0-| E||-2-2-2-2---------------------------| guitar 2: E||--------------------| B||--------------------| G||------7777----------|x4 D||-4444-7777-77777766-| A||-4444-5555-77777777-| E||-2222------55555555-| SOLO: E||-----9------9------9------9---| B||---7------7------7-------7----| G||-9------9------9-------9------|x4 D||------------------------------| A||------------------------------| E||------------------------------| CHORUS(same as before) .

END WITH: guitar 1: E||-----------------------------------| B||----------0-0-0-0------------------| G||-2-2-2-2--2-2-2-2--2-2-2-2-2-2-1-1-| D||-2-2-2-2--0-0-0-0--2-2-2-2-2-2-2-2-| A||-------------------0-0-0-0-0-0-0-0-| E||-2-2-2-2---------------------------| guitar 2: E||--------------------| B||--------------------| G||------7777----------| D||-4444-7777-77777766-| A||-4444-5555-77777777-| E||-2222------55555555-| .