Tuning: EADGBE (Standard

)
Guitar comes in at 00:52
Intro:
e|------------------------------------------------------------------------|
B|------------------------------------------------------------------------|
G|------------------------------------------------------------------------|
D|------------------------------------------------------------------------|
A|--------4--420---------4~-----------------------------------------------|
E|-2--45----------2--45---------------------------------------------------|
Verse: No guitar again until Chorus
Chorus:
e|------------------------------------------------------------------------|
B|------------------------------------------------------------------------|
G|----------------------6444444—8-10101010101010------8-66----------------|
D|--44444444--67777777--6444444—8-10101010101010—X3---8-66----------------|
A|--44444444--67777777--4444444—6-88888888888888------6-44----------------|
E|--22222222--45555555----------------------------------------------------|
Solo: (With reverb)
e|9-9-9-9-8-8-4-4-6-4-2-1/4-2-1-4-8-9-13-13h14p13-8-9-8-9-11-13-4---------|
B|------------------------------------------------------------------------|
G|------------------------------------------------------------------------|
D|------------------------------------------------------------------------|
A|------------------------------------------------------------------------|
E|------------------------------------------------------------------------|
OR
Solo: (With reverb)
e|9-9-9-9-8-8-----------------------9-11-13-13b14b13-11----------11-13b---|
B|------------9-9/11--------------9---------------------13-12-13----------|
G|------------------11-10/13-11--10------------------------------------13-|
D|------------------------------------------------------------------------|
A|------------------------------------------------------------------------|
E|------------------------------------------------------------------------|

Sign up to vote on this title
UsefulNot useful