You are on page 1of 1

a goofy song indeed, but some interesting chord changes that you could apply

to a lot of stuff...the walk down in the chorus (E--->A) is very typical of western
pop music
the bridge near the end is a pretty cool more chromatic walk down (C#mi--->A).

main riff....
E-----------------------------------------------------------------------------------------
--------------------------
B-----------------------------------------------------------------------------------------
--------------------------
G---------------------------------2-------------------------------------------------------
-------------------------
D---------------------------2-----2------------------------------------------------------
--------------------------
A-----------------2---------------0------------------------------------------------------
--------------------------
E---0---0--3^4-------4------------------------------------------------------------------
-------------------------

E
What ever happened to predictability?
E
The milkman, the paperboy, evening TV.
A B
miss your old familiar friends, waiting just around the bend

chorus...
E B/D# C#mi B A
Everywhere you look , everywhere you go (there's a heart). There's a heart
B
A hand to hold onto.

Everywhere you look , everywhere you go., There's a face,
Of somebody who needs you.
Eveywhere you look,
A E/G#
When you're lost out there and you're all alone,
C#mi C#mi/B F#/A# A B
A light is waiting to carry you home,
E riff
Everywhere you look.
Everywhere you look.