You are on page 1of 1

Eva Cassidy - Time After Time [Capo: 2]

(Intro)
Csus4 C
Csus2 Csus4 C
Csus2 Am
Am/G
F
E ------------------|------------------|------------------|----------1-------|
H ------1-----1-----|------1-----1-----|--1-------1-------|--------1---------|
G ----0-----0-----0-|----0-----0-----0-|------2-------0---|------2-----------|
D -2h3----2-----0---|-2h3----2-----0---|----2---2---2---2-|----3-------------|
A --3---------------|--3---------------|--0---------------|------------------|
E --+---+---+---+---|--+---+---+---+---|------+---3---+---|--1---+---+---+---|
(Verse)
Csus4 C
Csus2 Csus4 C
Csus2 Csus4 C
Csus2 Csus4 C
Csus2
E ------------------|------------------|------------------|------------------|
H ------1-----1-----|------1-----1-----|------1-----1-----|------1-----1-----|
G ----0-----0-----0-|----0-----0-----0-|----0-----0-----0-|----0-----0-----0-|
D --3-----2-----0---|--3-----2-----0---|--3-----2-----0---|--3-----2-----0---|
A --3-----3---------|--3-----3---------|--3-----3---------|--3-----3---------|
E --+---+---+---+---|--+---+---+---+---|--+---+---+---+---|--+---+---+---+---|
Lying in
my bed I hear
the clock tick and think of you.
You picture me
I'm walking
too far ahead
E
H
G
D
A
E

E
H
G
D
A
E

E
H
G
D
A
E

Csus4 C
Csus2 Csus4 C
Csus2 Csus4 C
Csus2 Csus4 C
Csus2
------------------|------------------|------------------|------------------|
------1-----1-----|------1-----1-----|------1-----1-----|------1-----1-----|
----0-----0-----0-|----0-----0-----0-|----0-----0-----0-|----0-----0-----0-|
--3-----2-----0---|--3-----2-----0---|--3-----2-----0---|--3-----2-----0---|
--3-----3---------|--3-----3---------|--3-----3---------|--3-----3---------|
--+---+---+---+---|--+---+---+---+---|--+---+---+---+---|--+---+---+---+---|
Turning in
circles confusion
is
nothing new.
You're calling
to me,
I can't hear What you've said
F
G
Em
F
F
G
Em
Em7
------------------|------------------|--1---------------|----------0-------|
--------------0---|--------------1---|--------------0---|--------0-----3---|
------------2-----|------------2-----|------2-----2-----|------0-------0---|
------3---0-----0-|------2---3-----3-|----3-----0-----0-|----2-------2---0-|
----3-------------|----2-------------|------------------|------------------|
--1---+-3-+---+---|--0---+-1-+---+---|--1---+-3-+---+---|--0---+---+---+---|
Flashback to
warm nights,
almost left
behind.
Then you say
go slow
I fall behind
F
G
Em
F
F
G
C
------------------|------------------|------------------|------------------|
--------------0---|--------------1---|------1-------0---|------1-----1-----|
------------2-----|------------2-----|------------------|----0-----0-------|
------3---0-----0-|------2---3-----3-|----3-------3-----|--3-----2----2p0--|
----3-------------|----2-------------|------------------|--3-----3-------3-|
--1---+-3-+---+---|--0---+-1-+---+---|--1---+---1---3-3-|------+---+---+---|
Suitcases of memories
time after
sometimes..
The second hand unwinds

(Chorus)
G
Am
F
G
Csus4 C
Csus2
E --3-----3---------|------------------|------------------|------------------|
H --0-----0-------0-|----------1---0---|------------------|--------1---1-----|
G ------2-------2---|------2-----------|--------2-----0---|------0-0---0-0---|
D ----0-------0-----|----2-------2---2-|------3-----0---0-|----2--2h3--2-0---|
A ------------------|--0-------0-------|----3-------------|--3-------------3-|
E --3---+-3-3---+---|--+---+-0-+---3---|--1---+---3---+---|--+---+---+---+---|
If you're lost you can look--and you will find me
Time after time
E
H
G
D
A
E

G
Am
F
G
Csus4 C
Csus2
--3-----3---------|------------------|------------------|------------------|
--0-----0-------0-|----------1---0---|------------------|--------1---1-----|
------2-------2---|------2-----------|--------2-----0---|------0-0---0-0---|
----0-------0-----|----2-------2---2-|------3-----0---0-|----2--2h3--2-0---|
------------------|--0-------0-------|----3-------------|--3-------------3-|
--3---+-3-3---+---|--+---+-0-+---3---|--1---+---3---+---|--+---+---+---+---|
If you fall I will catch you--I'll be waiting
Time after time