Avril Lavigne – Keep Holding On

Tabbed and arranged by: Alejandro Manzano of Boyce Avenue
www.myspace.com/boyceavenue
video of me playing/singing it:
http://www.youtube.com/watch?v=zEMTBs9FHbc
Tuning: C

G

C

G

C

E

x = mute
/ = slide
Verse 1:
-x---x---x---x---x---x---x---x----0----0----0---0---0-|
-0---2---0---0---0---2---0---0----0----0----0---0---0-|
-0---0---0---0---0---0---0---0----0----0----0---0---0-|
-x---x---4---x---x---x---4---x----x----x----x---x---x-|
-5---4---2---5---5---4---2---5--/-9--\-5--/-9---5---7-|
-x---x---x---5---x---x---x---5--/-9--\-5--/-9---5---7-|
Chorus 1:
-0---0---0---0---0---0---0---0---0---0---0---0-|
-0---0---0---0---0---0---0---0---0---2---0---0-|
-5---4---0---0---5---4---0---0---0---0---0---0-|
-0---2---4---0---0---2---4---0---4---2---4---0-|
-5---4---2---5---5---4---2---5---5---0---2---5-|
-0-----------5---0-----------5---0-----------5-|
-0---0---0---0-|
-0---0---0---0-|
-5---4---0---0-|
-0---2---4---0-|
-5---4---2---5-|
-0-----------5-|
Verse 2:
-x---x---x---x---x---x---x---x----0----0----0---0---0-|
-0---2---0---0---0---2---0---0----0----0----0---0---0-|
-0---0---0---0---0---0---0---0----0----0----0---0---0-|
-x---x---4---x---x---x---4---x----x----x----x---x---x-|
-5---4---2---5---5---4---2---5--/-9--\-5--/-9---5---7-|
-x---x---x---5---x---x---x---5--/-9--\-5--/-9---5---7-|
Chorus 2:
-0---0---0---0---0---0---0---0---0---0---0---0-|
-0---0---0---0---0---0---0---0---0---2---0---0-|
-5---4---0---0---5---4---0---0---0---0---0---0-|
-0---2---4---0---0---2---4---0---4---2---4---0-|
-5---4---2---5---5---4---2---5---5---0---2---5-|
-0-----------5---0-----------5---0-----------5-|
-0---0---0---0-|
-0---0---0---0-|
-5---4---0---0-|
-0---2---4---0-|
-5---4---2---5-|
-0-----------5-|
Breakdown:
-x---x-x-x-x---x--------------------|
-0---0-0-0-0---0---0---0----0-0-0-0-|
-5---5-7-9-7-\-4---2---0---0--0-2-4-| (slight palm mute)

-0---0-0-0-0---x---4---x------0-0-0-|
-5---5-7-9-7-\-4---2---5--5---0-2-4-|
-x---x-x-x-x---x-------5--5---------|
-x---x-x-x-x---x----------0-|
-0---0-0-0-0---0---0---0--2-|
-5---5-7-9-7-\-4---2---0--0-| (slight crescendo)
-0---0-0-0-0---x---4---x--2-|
-5---5-7-9-7-\-4---2---5--0-|
-x---x-x-x-x---x-------5----|
Chorus 3:
-0---0---0---0---0---0---0---0-|
-0---2---0---0---0---0---0---0-|
-0---0---0---0---5---4---0---0-|
-4---2---4---0---0---2---4---0-|
-5---0---2---5---5---4---2---5-|
-0-----------5---0-----------5-|