You are on page 1of 28

BLACKBIRD by: The Beatles

Tab by: Aaron Meredith


Standard tuning: (E-A-D-G-B-e)
/ = slide up
\ = slide down
~ = let ring
Note*- When you see a note like this (3) that is an optional way
To play the note below it. This is for those who have trouble reaching
on certain parts of the song. Actually, I think the notes in () might be
the way Paul played it. I am just more comfortable playing it the other way.
Intro:
e|-------------------------------------------------------------|
B|---0-------1-------3--------/12----12--12----12----12--12----|
G|-------0-------0-------0---------0-------0-------0-------0---|
D|-------------------------------------------------------------|
A|-----------0-------2--------/10------10------10------10------|
E|---3---------------------------------------------------------|
Verse: ("Blackbird singing....")
e|-------------------------------------------------------------|
B|---0-------1-------3--------/12----12--12----12----12--12----|
G|-------0-------0-------0---------0-------0-------0-------0---|
D|-------------------------------------------------------------|
A|-----------0-------2--------/10------10------10------10------|
E|---3---------------------------------------------------------|
("Take these....")
e|----------(3)-------------(5)-----------------------------------------|
B|---5-------8-------7-------10---------8-----8---8-----8-----8---8-----|
G|-------0-------0-------0-------0----------0-------0-------0-------0---|
D|----------------------------------------------------------------------|
A|---3-------4-------5-------6----------7-------7-------6-------6-------|
E|----------------------------------------------------------------------|
(All your life....")
e|----------(3)---------------------------------------|
B|---7-------8-------5-----5---5------4-----4---4-----|
G|-------0-------0-------0-------0--------0-------0---|
D|----------------------------------------------------|
A|---5-------4-------3-------3--------3-------3-------|
E|----------------------------------------------------|
(You were only waiting....")
e|-----------------------------------------------------------------------|
B|---3-----3---3-----2-----2---2------1-----1---1------0-----0----0------|
G|-------0-------0-------0-------0--------0-------0--------0---------0---|
D|------------------------------------0-------0--------------------------|
A|---2-------2-------0-------0-------------------------------------------|
E|-----------------------------------------------------3--------3--------|
Fill:

e|----------------------------------------------------------------------|
B|--5-------3---------2-----2---2-----1-----1---1------0-----0----0-----|
G|------0-------0---------0-------0-------0-------0--------0--------0---|
D|------------------------------------0-------0-------------------------|
A|--3-------2---------0-------0-----------------------------------------|
E|-----------------------------------------------------3--------3-------|
REPEAT VERSE: (without Fill:)
Chorus: ("Blackbird fly....")
e|---------------------------------------------------------------------|
B|---10------8-------6-------5---------3-----3---3-----5-----5---5-----|
G|-------0-------0-------0-------0---------0-------0-------0-------0---|
D|---------------------------------------------------------------------|
A|---8-------7-------5-------3---------1-------1-------3-------3-------|
E|---------------------------------------------------------------------|
("Blackbird fly....")
e|---------------------------------------------------------------------|
B|---10------8-------6-------5---------3-----3---3-----2-----2---2-----|
G|-------0-------0-------0-------0---------0-------0-------0-------0---|
D|---------------------------------------------------------------------|
A|---8-------7-------5-------3---------1-------1-------0-------0-------|
E|---------------------------------------------------------------------|
("....light of the....")
e|----------------------|
B|---1-----1---1----1---|
G|-------0-------0------|
D|---0-------0----------|
A|----------------------|
E|----------------------|
("night....")
e|-------------------------------------------------------------|
B|---0-------1-------3--------/12----12--12----12----12--12----|
G|-------0-------0-------0---------0-------0-------0-------0---|
D|-------------------------------------------------------------|
A|-----------0-------2--------/10------10------10------10------|
E|---3---------------------------------------------------------|
e|----------(3)-------------(5)----------------------------------------|
B|---5-------8-------7-------10--------8-----8---8-----8-----8---8-----|
G|-------0-------0-------0-------0---------0-------0-------0-------0---|
D|---------------------------------------------------------------------|
A|---3-------4-------5-------6---------7-------7-------6-------6-------|
E|---------------------------------------------------------------------|
e|----------(3)---------------------------------------|
B|---7-------8-------5-----5---5------4-----4---4-----|
G|-------0-------0-------0-------0--------0-------0---|
D|----------------------------------------------------|
A|---5-------4-------3-------3--------3-------3-------|

E|----------------------------------------------------|
e|----------------------------------------------------------------------|
B|---3-----3---3-----2-----2---2------1-----1---1-------0-----0----0----|
G|-------0-------0-------0-------0--------0-------0---------0--------0--|
D|------------------------------------0-------0-------------------------|
A|---2-------2-------0-------0------------------------------------------|
E|------------------------------------------------------3--------3------|

("Blackbird fly....")
e|---------------------------------------------------------------------|
B|---10------8-------6-------5---------3-----3---3-----5-----5---5-----|
G|-------0-------0-------0-------0---------0-------0-------0-------0---|
D|---------------------------------------------------------------------|
A|---8-------7-------5-------3---------1-------1-------3-------3-------|
E|---------------------------------------------------------------------|
("Blackbird fly....")
e|---------------------------------------------------------------------|
B|---10------8-------6-------5---------3-----3---3-----2-----2---2-----|
G|-------0-------0-------0-------0---------0-------0-------0-------0---|
D|---------------------------------------------------------------------|
A|---8-------7-------5-------3---------1-------1-------0-------0-------|
E|---------------------------------------------------------------------|
("light of a ....")
e|----------------------|
B|---1-----1---1----1---|
G|-------0-------0------|
D|---0-------0----------|
A|----------------------|
E|----------------------|
("night....")
e|-------------------------------------------------------------|
B|---0-------1-------3--------/12----12--12----12----12--12----|
G|-------0-------0-------0---------0-------0-------0-------0---|
D|-------------------------------------------------------------|
A|-----------0-------2--------/10------10------10------10------|
E|---3---------------------------------------------------------|
(..churping..)
e|----------------------------------------------------------------------|
B|---12----12--12----12----12--12------12-----12----12----12~~~~~-------|
G|-------0-------0-------0-------0---------0-----0-----0---0~~~~~-------|
D|----------------------------------------------------------------------|
A|---10------10------10------10--------10-----10----10----10~~~~~-------|
E|----------------------------------------------------------------------|
e|------------------------------------------------------------------------|
B|-12\--0-------1-------3--------5-------3-------2--------1-----1---1-----|
G|----------0-------0-------0--------0-------0-------0--------0-------0---|
D|--------------------------------------------------------0-------0-------|
A|-10\----------0-------2--------3-------2-------0------------------------|

E|------3-----------------------------------------------------------------|

Verse: ("Blackbird singing....")


e|-------------------------------------------------------------|
B|---0-------1-------3--------/12----12--12----12----12--12----|
G|-------0-------0-------0---------0-------0-------0-------0---|
D|-------------------------------------------------------------|
A|-----------0-------2--------/10------10------10------10------|
E|---3---------------------------------------------------------|
("Take these....")
e|----------(3)-------------(5)-----------------------------------------|
B|---5-------8-------7-------10---------8-----8---8-----8-----8---8-----|
G|-------0-------0-------0-------0----------0-------0-------0-------0---|
D|----------------------------------------------------------------------|
A|---3-------4-------5-------6----------7-------7-------6-------6-------|
E|----------------------------------------------------------------------|
("All your life....")
e|----------(3)---------------------------------------|
B|---7-------8-------5-----5---5------4-----4---4-----|
G|-------0-------0-------0-------0--------0-------0---|
D|----------------------------------------------------|
A|---5-------4-------3-------3--------3-------3-------|
E|----------------------------------------------------|
("You were only....")
e|------------------------------------------------------------------------|
B|---3-----3---3-----2-----2---2--------1-----1---1------0-----0----0-----|
G|-------0-------0-------0-------0----------0-------0--------0--------0---|
D|--------------------------------------0-------0-------------------------|
A|---2-------2-------0-------0--------------------------------------------|
E|-------------------------------------------------------3--------3-------|
("You were only....")
e|------------------------------------------------------------------------|
B|---5-------3-------2-----2---2--------1-----1---1------0-----0----0-----|
G|-------0-------0-------0-------0----------0-------0--------0--------0---|
D|--------------------------------------0-------0-------------------------|
A|---3-------2-------0-------0--------------------------------------------|
E|-------------------------------------------------------3--------3-------|
("You were only....")
e|----------------------------------------------------------------------|
B|---5-------3-------2-----2---2--------1-----1---1-----0---0~~~~~------|
G|-------0-------0-------0-------0----------0-------0---0---0~~~~~------|
D|--------------------------------------0-------0-------0---0~~~~~------|
A|---3-------2-------0-------0------------------------------2~~~~~------|
E|------------------------------------------------------3---------------|

Artists: The Beatles


A day in the Life
Tuning: Standard
Intro:
|G Bm| Em Em7|C

|C

Verse1:
G
Bm
Em
I read the news today oh boy

Em7

C
C/B
Asus2
About a lucky man who made the grade
G
Bm
Em
Em7
And though the news was rather sad
C
F
Em
Em7
Well I just had to laugh
C
F
Em
C
I saw the photograph
Verse 2:
G
Bm
Em
Em7
He blew his mind out in a car
C
C/B
Asus2
He didn't notice that the lights had changed
G
Bm
Em
Em7
A crowd of people stood and stared
C
F
They'd seen his face before
Em
Nobody was really sure
Em7
C
If he was from the House of Lords
Verse 3:
G
Bm
Em
Em7
I saw a film today oh boy
C
C/B
Asus2
The English Army had just won the war
G
Bm
Em
Em7
A crowd of people turned away
C
F
Em
But I just had to look
Em7
C
Having read the book
N.C
I'd love to turn you on
Instrumental
Middle:
E
Woke up, fell out of bed
Dsus2
Dragged a comb across my head
E
B7sus4

Found my way downstairs and drank a cup


E
B7sus4
(B7)
And looking up I noticed I was late (ha ha ha.)
E
Found my coat and grabbed my hat
Dsus2
Made the bus in seconds flat
E
B7sus4
Found my way upstairs and had a smoke
E
B7sus4
And somebody spoke and I went into a dream.
Interlude:
C G
D A
E
C G
D A |E D C D|
(Aaaaaaaaaaaahhhhhhhhhhhhhhhhhhhh)
Verse 4:
G
Bm
Em Em7
I read the news today oh boy
C
C/B
Asus2
Four thousand holes in Blackburn, Lancashire
G
Bm
Em
Em7
And though the holes were rather small
C
F
They had to count them all
Em
Em7
C
Now they know how many holes it takes to fill the Albert Hall
N.C
I'd love to turn you on.
Instrumental:
|N.C|N.C|N.C|N.C|E

Chords (low to high):

| (hold E chord to fade)

Em7: 022030
C/B: X22010
Asus2: X02200
Dsus2: XX0230
B7sus4: X24252

Across The Universe


by the Beatles
Intro :
|--2-----/10-----9--7--5----------------------------------------------------|------------------------7---2--2--2--2--2--2--2--2--------------2----------|--2-----/11-----9--7--6-----2--4--2--4--2--4--2--4--2--4--2--4--2--4--2--4-|-----0-------0--------------4--4--4--4--4--4--4--4--2--2--2--2--2--2--2--2-|----------------------------x--x--x--x--x--x--x--x--0-----0-----0-----0----|----------------------------2-----2-----2-----2----------------------------D
Bm
F#m
Words are flowing out like endless rain into a paper cup
Em7
A
A7
They slither while they pass they slip away across the Universe.
D
Bm
F#m
Pools of sorrow, waves of joy are drifting through my opened mind
Em7
Gm
Possessing and caressing me.
D
A7sus4
Jai Guru Deva Om
A7
Nothing's gonna change
G
Nothing's gonna change
A7
Nothing's gonna change
G
Nothing's gonna change

my world
D
my world
my world
D
my world

D
Bm
F#m
Em7
Images of broken light which dance before me like a million eyes
A
A7
They call me on and on across the Universe.
D
Bm
F#m
Thoughts meander like a restless wind inside a letterbox
Em7
A
A7
They tumble blindly as they make their way across the Universe.
D
Jai Guru De Va
A7
Nothing's gonna
G
Nothing's gonna
A7
Nothing's gonna
G
Nothing's gonna

A7sus4
Om
change my world
D
change my world
change my world
D
change my world

D
Bm
F#m
Sounds of laughter, shades of earth are ringing through my opened ears
Em7
Gm
Inciting and inviting me.
D
Bm
F#m
Em7
Limitless, undying love which shines around me like a million suns
A
A7
And calls me on and on across the Universe.
D
A7sus4
Jai Guru Deva Om
A7
Nothing's gonna change
G
Nothing's gonna change
A7
Nothing's gonna change
G
Nothing's gonna change
D
Jai Guru Deva.

my world
D
my world
my world
D
my world

(Repeat)

transcribed by Chris Sears


cts@mail.utexas.edu
From: hertzberg@netcad.enet.dec.com (Marc Hertzberg (History: Love it or
leave it!))
Subject: TAB: Across The Universe (Lennon/McCartney)
Don't hold me to these words... they're only there to put some chords to!
For the authentic sound, capo at the first fret.
Marc
P.S. In case you're interested, I play the '8' note on the first string with
me thumb.
Across The Universe
(Lennon/McCartney)
Intro :
-|--0-----/8-----7--5--3-----------------------------------------------------|------------------------5--0--0--0--0--0--0--0--0--0--0--0--0--0--0--0--0--|-----0--/9-----7--5--4-----0--2--0--2--0--2--0--2--0--2--0--2--0--2--0--2--|---------------------------2--2--2--2--2--2--2--2--0--0--0--0--0--0--0--0--|--3------------------------2--2--2--2--2--2--2--2--2--2--2--2--2--2--2--2--

-|------------8--------------0--0--0--0--0--0--0--0--3--3--3--3--3--3--3--3-Verse 1:
C
Am
Em
Words are flowing out like endless rain into a paper cup
Dm
G
They slither as they fall they make their way across the universe
C
Am
Em
Pools of sorrow waves of joy are drifting through my open mind
Dm
Fm
Inciting and inviting me
Chorus:
C
Jai Guru Da La

G
Om

Nothing's gonna change my world


F
C
Nothing's gonna change my world
G
Nothing's gonna change my world
F
C
Nothing's gonna change my world
----------------------------------------------------------------------Tab Special Notations:
----0---- play the open string ('fret zero')
----5---- play fret five
----5~--- play fret five with vibrato
---5/7--- play fret five, slide up to fret seven
---7\5--- play fret seven, slide down to fret five
--8b(9)-- play fret eight, bend the string (at fret eight) to reach
the pitch of fret nine
--b(9)8-- play fret eight already bent to the pitch of fret nine,
unbending until it reaches the normal pitch of fret eight
----h7--- hammer-on to fret seven
----p5--- pull-off to fret five
---/7---- slide up to fret 7 (the starting fret of the slide is
undefined, judge by ear)
---15\--- play fret 15, slide down (the ending fret of the slide is
undefined, judge by ear)
---0h3--- play the open string and immediately hammer-on to fret
three
---7p5--- play fret seven and immediately pull-off to fret five

Capo 2nd fret


ALL MY LOVING
Em
A7
D
Bm
Close your eyes and Ill kiss you, tomorrow ill miss you,
G
Em
C
A7
remember Ill always be true.
Em
A7
D
Bm
And then while Im away Ill write home everyday
G
A
D
and Ill send all my loving to you.
Em
A7
D
Bm
Ill pretend that Im kissing, the lips I am missing
G
Em
C
A7
and hope that my dreams will come true.
Em
A7
D
Bm
And then while Im away Ill write home everyday
G
A
D
and Ill send all my loving to you.
Bm
F#7
D
All my loving I will send to you.
Bm
F#7
D
All my loving, darling Ill be true.
Em
A7
D
Bm
Close your eyes and Ill kiss you, tomorrow Ill miss you,
G
Em
C
A7
remember Ill always be true.
Em
A7
D
Bm
And then while Im away Ill write home everyday
G
A
D
and Ill send all my loving to you.
Bm
F#7
D
All my loving Ill will send to you.
Bm
F#7
D
All my loving, darling Ill be true.

Here come old flattop he come grooving up slowly


He got joo-joo eyeball he one holly roller
He got hair down to his knee
Got to be a joker he just do what he please
He wear no shoeshine he got toe-jam football
He got monkey finger he shoot coca-cola
He say "I know you, you know me"
One thing I can tell you is you got to be free
Come together right now over me
He bag production he got walrus gumboot
He got Ono sideboard he one spinal cracker
He got feet down below his knee
Hold you in his armchair you can feel his disease
Come together right now over me
He roller-coaster he got early warning
He got muddy water he one mojo filter
He say "One and one and one is three"
Got to be good-looking 'cause he's so hard to see
Come together right now over me

INTRO
D7
e|------- ------- ------- -------|------- ------- ------- -------|
B|-------------------------------|-------------------------------|
G|------------5------------------|----------------5--------------|
D|--------5H7--------------------|--------5H7--------------------|
A|5---5--------------------------|5---5--------------------------|
E|-------------------------------|-------------------------------|
Shoot me
Shoot me

e|------- ------- ------- -------|------- ------- ------- -------|


B|-------------------------------|-------------------------------|
G|------------5------------------|----------------5--------------|
D|--------5H7--------------------|--------5H7--------------------|
A|5---5--------------------------|5---5--------------------------|
E|-------------------------------|-------------------------------|
Shoot me
Shoot me
VERSE
00:12
D5
D6
D5
D6 ....
e|------- ------- ------- -------|------- ------- ------- -------|
B|-------------------------------|-------------------------------|
G|-------------------------------|-------------------------------|
D|7---7---9---9---7---7---9---9--|7---7---9---9---7---7---9---9--|

A|5---5---5---5---5---5---5---5--|5---5---5---5---5---5---5---5--|
E|-------------------------------|-------------------------------|
Here old
flattop he come
grooving
slowly He got
come
up

e|------- ------- ------- -------|------- ------- ------- -------|


B|-------------------------------|-------------------------------|
G|-------------------------------|-------------------------------|
D|7---7---9---9---7---7---9---9--|7---7---9---9---7---7---9---9--|
A|5---5---5---5---5---5---5---5--|5---5---5---5---5---5---5---5--|
E|-------------------------------|-------------------------------|
joo - joo eyeball he one
holly
roller He got

A5
A6
A5
A6 ....
e|------- ------- ------- -------|------- ------- ------- -------|
B|-------------------------------|-------------------------------|
G|-------------------------------|-------------------------------|
D|-------------------------------|-------------------------------|
A|7---7---9---9---7---7---9---9--|7---7---9---9---7---7---7---7-\|
E|5---5---5---5---5---5---5---5--|5---5---5---5---5---5---5---5-\|
hair
down
to
his knee
X
X X
X
X X
X
X X
X
X X
G5
e|------- ------- ------- -------|------- ------- ------- -------|
B|-------------------------------|-------------------------------|
G|-------------------------------|-------------------------------|
D|-------------------------------|-------------------------------|
A|5------------------------------|-------------------------------|
E|3------------------------------|-------------------------------|
Got to be a
joker
he just
what
please
do
he
00:35
e|------- ------- ------- -------|------- ------- ------- -------|
B|-------------------------------|-------------------------------|
G|------------5------------------|----------------5--------------|
D|--------5H7--------------------|--------5H7--------------------|
A|5---5--------------------------|5---5--------------------------|
E|-------------------------------|-------------------------------|
Shoot me
Shoot me

e|------- ------- ------- -------|------- ------- ------- -------|


B|-------------------------------|-------------------------------|
G|------------5------------------|----------------5--------------|
D|--------5H7--------------------|--------5H7--------------------|
A|5---5--------------------------|5---5--------------------------|
E|-------------------------------|-------------------------------|

Shoot me

Shoot me

VERSE
00:47
e|------- ------- ------- -------|------- ------- ------- -------|
B|-------------------------------|-------------------------------|
G|-------------------------------|-------------------------------|
D|7---7---9---9---7---7---9---9--|7---7---9---9---7---7---9---9--|
A|5---5---5---5---5---5---5---5--|5---5---5---5---5---5---5---5--|
E|-------------------------------|-------------------------------|
He wear
shoeshine
got
toe - jam football
got
no
he
He
e|------- ------- ------- -------|------- ------- ------- -------|
B|-------------------------------|-------------------------------|
G|-------------------------------|-------------------------------|
D|7---7---9---9---7---7---9---9--|7---7---9---9---7---7---9---7--|
A|5---5---5---5---5---5---5---5--|5---5---5---5---5---5---5---5--|
E|-------------------------------|-------------------------------|
monkey
finger he shoot
coca
cola
He say

e|------- ------- ------- -------|------- ------- ------- -------|


B|-------------------------------|-------------------------------|
G|-------------------------------|-------------------------------|
D|-------------------------------|-------------------------------|
A|7---7---9---9---7---7---9---9--|7---7---9---9---7---7---9---7--|
E|5---5---5---5---5---5---5---5--|5---5---5---5---5---5---5---5--|
"I
know
you know
me"
you,
X

X X

X X

X X

X X

e|------- ------- ------- -------|------- ------- ------- -------|


B|-------------------------------|-------------------------------|
G|-------------------------------|-------------------------------|
D|-------------------------------|-------------------------------|
A|5------------------------------|-------------------------------|
E|3------------------------------|-------------------------------|
One thing
can tell
is you got to be free
Come
I
you
together
REFRAIN
01:10
B5
G5
A5
e|------- ------- ------- -------|------- ------- ------- -------|
B|-------------------------------|-------------------------------|
G|-------------------------------|-------------------------------|
D|9---9---9---9---9---9----------|-------------------------------|
A|9---9---9---9---9---9---9---9--|5---5---5---5-/-7--------------|
E|7---7---7---7---7---7---5---5--|3---3---3---3-/-5--------------|
right
now
over me
01:16

e|------- ------- ------- -------|------- ------- ------- -------|


B|-------------------------------|-------------------------------|
G|------------5------------------|----------------5--------------|
D|--------5H7--------------------|--------5H7--------------------|
A|5---5--------------------------|5---5--------------------------|
E|-------------------------------|-------------------------------|
Shoot me
Shoot me

e|------- ------- ------- -------|------- ------- ------- -------|


B|-------------------------------|-------------------------------|
G|------------5------------------|----------------5--------------|
D|--------5H7--------------------|--------5H7--------------------|
A|5---5--------------------------|5---5--------------------------|
E|-------------------------------|-------------------------------|
Shoot me
Shoot me
VERSE
01:27
e|------- ------- ------- -------|------- ------- ------- -------|
B|-------------------------------|-------------------------------|
G|-------------------------------|-------------------------------|
D|7---7---9---9---7---7---9---9--|7---7---9---9---7---7---9---9--|
A|5---5---5---5---5---5---5---5--|5---5---5---5---5---5---5---5--|
E|-------------------------------|-------------------------------|
He bag production he got
walrus
gumboot He got

e|------- ------- ------- -------|------- ------- ------- -------|


B|-------------------------------|-------------------------------|
G|-------------------------------|-------------------------------|
D|7---7---9---9---7---7---9---9--|7---7---9---9---7---7---9---7-\|
A|5---5---5---5---5---5---5---5--|5---5---5---5---5---5---5---5-\|
E|-------------------------------|-------------------------------|
Ono
sideboard
one
spinal
cracker He got
he

e|------- ------- ------- -------|------- ------- ------- -------|


B|-------------------------------|-------------------------------|
G|-------------------------------|-------------------------------|
D|-------------------------------|-------------------------------|
A|7---7---9---9---7---7---9---9--|7---7---9---9---7---7---9---7-\|
E|5---5---5---5---5---5---5---5--|5---5---5---5---5---5---5---5-\|
feet
down
below
his knee
X

X X

X X

X X

X X

e|------- ------- ------- -------|------- ------- ------- -------|

B|-------------------------------|-------------------------------|
G|-------------------------------|-------------------------------|
D|-------------------------------|-------------------------------|
A|5------------------------------|-------------------------------|
E|3------------------------------|-------------------------------|
Hold
in his armchair
can feel
disease
Come
you
you
his
together
REFRAIN
01:51
e|------- ------- ------- -------|------- ------- ------- -------|
B|-------------------------------|-------------------------------|
G|-------------------------------|-------------------------------|
D|9---9---9---9---9---9----------|-------------------------------|
A|9---9---9---9---9---9---9---9--|5---5---5---5-/-7--------------|
E|7---7---7---7---7---7---5---5--|3---3---3---3-/-5--------------|
right
now
over me
xxxxx x

x X X X X

e|------- ------- ------- -------|------- ------- ------- -------|


B|-------------------------------|-------------------------------|
G|------------5------------------|----------------5--------------|
D|--------5H7--------------------|--------5H7--------------------|
A|5---5--------------------------|5---5--------------------------|
E|-------------------------------|-------------------------------|
Shoot me
e|------- ------- ------- -------|------- ------- ------- -------|
B|------------6------------------|----------------6--------------|
G|------------5------------------|----------------5--------------|
D|------------7------------------|----------------7--------------|
A|-------------------------------|-------------------------------|
E|-------------------------------|-------------------------------|
INTERLUDE
02:02
D5
D6 ....
e|------- ------- ------- -------|------- ------- ------- -------|
B|-------------------------------|-------------------------------|
G|-------------------------------|-------------------------------|
D|7---7---9---9---7---7---9---9--|7---7---9---9---7---7---9---9--|
A|5---5---5---5---5---5---5---5--|5---5---5---5---5---5---5---5--|
E|-------------------------------|-------------------------------|
e|------- ------- ------- -------|------- ------- ------- -------|
B|----6-6-6-6-6-6-6--------------|----6-6-6-6-6-6-6--------------|
G|----5-5-5-5-5-5-5---7---5---7--|----5-5-5-5-5-5-5---7---5---7--|
D|--------------------7---5---7--|--------------------7---5---7--|
A|-------------------------------|-------------------------------|
E|-------------------------------|-------------------------------|

e|------- ------- ------- -------|------- ------- ------- -------|


B|-------------------------------|-------------------------------|
G|-------------------------------|-------------------------------|
D|7---7---9---9---7---7---9---9--|7---7---9---9---7---7---9---7-\|
A|5---5---5---5---5---5---5---5--|5---5---5---5---5---5---5---5-\|
E|-------------------------------|-------------------------------|
Come
e|------- ------- ------- -------|------- ------- ------- -------|
B|----6-6-6-6-6-6-6--------------|--6-6-6-6-6-6-6----------------|
G|----5-5-5-5-5-5-5---7---5---7--|--5-5-5-5-5-5-5-----7---5---7--|
D|--------------------7---5---7--|--------------------7---5---7--|
A|-------------------------------|-------------------------------|
E|-------------------------------|-------------------------------|
SOLO
02:14
A5
A6 ....
e|------- ------- ------- -------|------- ------- ------- -------|
B|-------------------------------|-------------------------------|
G|-------------------------------|-------------------------------|
D|-------------------------------|-------------------------------|
A|7---7---9---9---7---7---9---9--|7---7---9---9---7---7---9---9--|
E|5---5---5---5---5---5---5---5--|5---5---5---5---5---5---5---5--|
Oh,
Come
e|------- ------- ------- -------|------- ------- ------- -------|
B|--------5----------------------|--------5----------------------|
G|--------6----------------------|--------6----------------------|
D|--------7----------------------|--------7----------------------|
A|7---7---7----------------------|7---7---7----------------------|
E|5---5---5----------------------|5---5---5----------------------|
e|------- ------- ------- -------|------- ------- ------- -------|
B|1517-~--------------1517151715131517-~-------------------------|
G|-B-------------------B---B-R-P-|-B-----------------------------|
D|-------------------------------|-------------------------------|
A|-------------------------------|-------------------------------|
E|-------------------------------|-------------------------------|
e|1517-~- ------- ----1517151715131517-~- ------- ------- -------|
B|-B-------------------B---B-R-P-|-B-----------------------------|
G|-------------------------------|-------------------------------|
D|-------------------------------|-------------------------------|
A|-------------------------------|-------------------------------|
E|-------------------------------|-------------------------------|

e|------- ------- ------- -------|------- ------- ------- -------|


B|-------------------------------|-------------------------------|
G|-------------------------------|-------------------------------|
D|-------------------------------|-------------------------------|
A|7---7---9---9---7---7---9---9--|7---7---9---9---7---7----------|
E|5---5---5---5---5---5---5---5--|5---5---5---5---5---5----------|

Come
Come
e|------- ------- ------- -------|------- ------- ------- -------|
B|--------5----------------------|--------5----------------------|
G|--------6----------------------|--------6----------------------|
D|--------7----------------------|--------7----------------------|
A|7---7---7----------------------|7---7---7----------------------|
E|5---5---5----------------------|5---5---5----------------------|
e|------- ------- ------- -------|------- ------- ------- -------|
B|1517-~--------------151715171513-B-----------------------------|
G|-B-------------------B---B-R-P-|1214-~--------------121412141210
D|-------------------------------|---------------------B---B-R-P-|
A|-------------------------------|-------------------------------|
E|-------------------------------|-------------------------------|
e|1517-~- ------- ----151715171513--B---- ------- ------- -------|
B|-B-------------------B---B-R-P-|1517-~--------------151715171514
G|-------------------------------|---------------------B---B-R-P-|
D|-------------------------------|-------------------------------|
A|-------------------------------|-------------------------------|
E|-------------------------------|-------------------------------|

D7
e|------- ------- ------- -------|------- ------- ------- -------|
B|1315-~-------------------------|-------------------------------|
G|-B-----------------------------|-------------------------------|
D|-------------------------------|-------------------------------|
A|-------------------------------|-------------------------------|
E|-------------------------------|-------------------------------|
e|1517-~- ------- ------- -------|------- ------- ------- -------|
B|-B-----------------------------|-------------------------------|
G|-------------------------------|-------------------------------|
D|-------------------------------|-------------------------------|
A|-------------------------------|-------------------------------|
E|-------------------------------|-------------------------------|
e|------- ------- ------- -------|------- ------- ------- -------|
B|-------------------------------|-------------------------------|
G|------------5------------------|----------------5--------------|
D|--------5H7--------------------|--------5H7--------------------|
A|5---5--------------------------|5---5--------------------------|
E|-------------------------------|-------------------------------|
Piano
e|------- ------- ------- -------|------- ------- ------- -------|
B|--------6---3-----------1------|----0--------------------------|
G|--------5---4-----------2------|----0-----------2--------------|
D|----0---------------0----------|0---------------3--------------|
A|-------------------------------|------------5------------------|
E|-------------------------------|-------------------------------|
VERSE
02:31

e|------- ------- ------- -------|------- ------- ------- -------|


B|-------------------------------|-------------------------------|
G|----------------------------7--|----------------------------5--|
D|7---7---9---9---7---7---7/9----|7---7---9---9---7---7---5H7----|
A|5---5---5---5---5---5----------|5---5---5---5---5---5---5------|
E|-------------------------------|-------------------------------|
He roller
he got
early
warning He got
coaster
e|------- ------- ------- -------|------- ------- ------- -------|
B|----------------------------6--|-------------------------------|
G|----------------------------5--|7---7--------------------------|
D|7---7---9---9---7---7---5H7----|7---7---9---9---7---7---5H7-\--|
A|5---5---5---5---5---5---5------|5---5---5---5---5---5---5------|
E|-------------------------------|-------------------------------|
muddy
water
he one
mojo
filter He say

e|------- ------- ------- -------|------- ------- ------- -------|


B|-------------------------------|-------------------------------|
G|-------------------------------|-------------------------------|
D|-------------------------------|-------------------------------|
A|7---7---9---9---7---7---5-\----|7---7---9---9---7---7---5H7-7-\|
E|5---5---5---5---5---5---5-\----|5---5---5---5---5---5---5---5-\|
"One
and one
and one
is three"
X

X X

X X

X X

X X

e|------- ------- ------- -------|------- ------- ------- -------|


B|-------------------------------|-------------------------------|
G|-------------------------------|-------------------------------|
D|-------------------------------|-------------------------------|
A|5------------------------------|-------------------------------|
E|3------------------------------|-------------------------------|
Got
be good
'cause
so hard
see
Come
to
looking
he's
to
together
REFRAIN
02:54
e|------- ------- ------- -------|------- ------- ------- -------|
B|-------------------------------|-------------------------------|
G|-------------------------------|-------------------------------|
D|9---9---9---9---9---9----------|-------------------------------|
A|9---9---9---9---9---9---9---5--|5---5---5---5-/-7--------------|
E|7---7---7---7---7---7---5---5--|3---3---3---3-/-5--------------|
right
now
over me

e|------- ------- ------- -------|------- ------- ------- -------|


B|-------------------------------|-------------------------------|

G|------------5------------------|----------------5--------------|
D|--------5H7--------------------|--------5H7--------------------|
A|5---5--------------------------|5---5--------------------------|
E|-------------------------------|-------------------------------|
Shoot me
e|------- ------- ------- -------|------- ------- ------- -------|
B|------------6------------------|----------------6--------------|
G|------------5------------------|----------------5--------------|
D|------------7------------------|----------------7--------------|
A|-------------------------------|-------------------------------|
E|-------------------------------|-------------------------------|

e|------- ------- ------- -------|------- ------- ------- -------|


B|-------------------------------|-------------------------------|
G|------------5------------------|----------------5--------------|
D|--------5H7--------------------|--------5H7--------------------|
A|5---5--------------------------|5---5--------------------------|
E|-------------------------------|-------------------------------|
Shoot me
Shoot me
Oh!
e|------- ------- ------- -------|------- ------- ------- -------|
B|------------6------------------|----------------6--------------|
G|------------5------------------|----------------5--------------|
D|------------7------------------|----------------7--------------|
A|-------------------------------|-------------------------------|
E|-------------------------------|-------------------------------|
e|------- ------- ------- -------|------- ------- ------- -------|
B|-------------------------------|-------------------------------|
G|-------------------------------|-------------------------------|
D|------------------------12-----|-------------------------------|
A|-------------------------------|-------------------------------|
E|-------------------------------|-------------------------------|
CODA
03:12
e|------- ------- ------- -------|------- ------- ------- -------|
B|-------------------------------|----------------------------6--|
G|----------------------------5--|----------------------------5--|
D|7---7---9---9---7---7---5H7-7--|7---7---9---9---7---7---5H7-7--|
A|5---5---5---5---5---5---5------|5---5---5---5---5---5---5------|
E|-------------------------------|-------------------------------|
e|------- ------- ------- -------|------- ------- ------- -------|
B|--------6---3-----------1------|----0--------------------------|
G|--------5---4-----------2------|----0-----------2--------------|
D|----0---------------0----------|0---------------3--------------|
A|-------------------------------|------------5------------------|
E|-------------------------------|-------------------------------|
e|------- ------- ------- -------|------- ------- ----1315131513-|
B|13B15-~------------------------|---------------------B---B-R--15

G|-------------------------------|-------------------------------|
D|-------------------------------|-------------------------------|
A|-------------------------------|-------------------------------|
E|-------------------------------|-------------------------------|

e|------- ------- ------- -------|------- ------- ------- -------|


B|----------------------------6--|-------------------------------|
G|----------------------------5--|----------------------------5--|
D|7---7---9---9---7---7---5H7-7--|7---7---9---9---7---7---5H7-7--|
A|5---5---5---5---5---5---5------|5---5---5---5---5---5---5------|
E|-------------------------------|-------------------------------|
Come
Yeah
together
e|------- ------- ------- -------|------- ------- ------- -------|
B|--------6---3-----------1------|----0--------------------------|
G|--------5---4-----------2------|----0-----------2--------------|
D|----0---------------0----------|0---------------3--------------|
A|-------------------------------|------------5------------------|
E|-------------------------------|-------------------------------|
e|------- ------- ------- -------|------- ------- ------- -------|
B|13B15-~------------------------|-------------------------------|
G|-------------------------------|--------------------10-B13R12P10
D|-------------------------------|-------------------------------|
A|-------------------------------|-------------------------------|
E|-------------------------------|-------------------------------|

e|------- ------- ------- -------|------- ------- ------- -------|


B|-------------------------------|-------------------------------|
G|--------------------------5----|--------------------------7----|
D|7---7---9---9---7---7-5H7---5H7|7---7---9---9---7---7-7/9---9\7|
A|5---5---5---5---5---5-5-----5--|5---5---5---5---5---5----------|
E|-------------------------------|-------------------------------|
Come
Yeah
together
e|------- ------- ------- -------|------- ------- ------- -------|
B|--------6---3-----------1------|----0--------------------------|
G|--------5---4-----------2------|----0-----------2--------------|
D|----0---------------0----------|0---------------3--------------|
A|-------------------------------|------------5------------------|
E|-------------------------------|-------------------------------|
B R
e|------- ------- ------- -------|------- ------- ------- 131513-|
B|13B15-~------------------------|--------------------15--------15
G|-------------------------------|-------------------------------|
D|-------------------------------|-------------------------------|
A|-------------------------------|-------------------------------|
E|-------------------------------|-------------------------------|

e|------- ------- ------- -------|------- ------- ------- -------|


B|-------------------------------|-------------------------------|
G|--------------------------7-7--|--------------------------7----|
D|7---7---9---9---7---7-7/9---9\7|7---7---9---9---7---7-7/9--9\7-|
A|5---5---5---5---5---5-5--------|5---5---5---5---5---5----------|
E|-------------------------------|-------------------------------|
Come
Yeah
together
e|------- ------- ------- -------|------- ------- ------- -------|
B|--------6---3-----------1------|----0--------------------------|
G|--------5---4-----------2------|----0-----------2-----------2--|
D|----0---------------0----------|0---------------3-----------3--|
A|-------------------------------|------------5---------------5--|
E|-------------------------------|-------------------------------|
e|------- ------- ------- -------|------- ------- ------- -------|
B|13B15-~------------------------|-------------------------------|
G|-------------------------------|-------------------14--B19R17P14
D|-------------------------------|-------------------------------|
A|-------------------------------|-------------------------------|
E|-------------------------------|-------------------------------|

e|------- ------- ------- -------|------- ------- ------- -------|


B|--------------------------8----|--------------------------6-6--|
G|--------------------------7-7--|--------------------------5-5--|
D|7---7---9---9---7---7-7/9---9\7|7---7---9---9---7---7-5H7---7--|
A|5---5---5---5---5---5----------|5---5---5---5---5---5-5--------|
E|-------------------------------|-------------------------------|
Come
Yeah
together
e|------- ------- ------- -------|------- ------- ------- -------|
B|--------6---3-----------1------|----0--------------------------|
G|--------5---4-----------2------|----0-----------2-----------2--|
D|----0---------------0----------|0---------------3-----------3--|
A|-------------------------------|------------5---------------5--|
E|-------------------------------|-------------------------------|
e|15B17-~ ------- ------- -------|------- ------- ----151715171513
B|-------------------------------|---------------------B---B-R-P-|
G|-------------------------------|-------------------------------|
D|-------------------------------|-------------------------------|
A|-------------------------------|-------------------------------|
E|-------------------------------|-------------------------------|

e|------- ------- ------- -------|------- ------- ------- -------|


B|-------------------------------|-------------------------------|
G|--------------------------5----|--------------------------5----|
D|7---7---9---9---7---7-5H7------|7---7---9---9---7---7-5H7---7--|
A|5---5---5---5---5---5-5--------|5---5---5---5---5---5-5-----5--|
E|-------------------------------|-------------------------------|
Come
Yeah
together
e|------- ------- ------- -------|------- ------- ------- -------|
B|--------6---3-----------1------|----0--------------------------|
G|--------5---4-----------2------|----0-----------2-----------2--|
D|----0---------------0----------|0---------------3-----------3--|
A|-------------------------------|------------5---------------5--|
E|-------------------------------|-------------------------------|
e|15B17-~ ------- ------- -------|------- ------- ----17- 202220-|
B|-------------------------------|-------------------------B-R---|
G|-------------------------------|-------------------------------|
D|-------------------------------|-------------------------------|
A|-------------------------------|-------------------------------|
E|-------------------------------|-------------------------------|

e|------- ------- ------- -------|------- ------- ------- -------|


B|-------------------------------|----------------------------6--|
G|--------------------------5----|--------------------------5-5--|
D|7---7---9---9---7---7-5H7-7-7--|7---7---9---9---7---7-5H7------|
A|5---5---5---5---5---5-5-----5--|5---5---5---5---5---5-5--------|
E|-------------------------------|-------------------------------|
Come
Yeah
together
e|------- ------- ------- -------|------- ------- ------- -------|
B|--------6---3-----------1------|----0--------------------------|
G|--------5---4-----------2------|----0-----------2--------------|
D|----0---------------0----------|0---------------3--------------|
A|-------------------------------|------------5------------------|
E|-------------------------------|-------------------------------|
e|20B22-~ ------- ------- -------|------- ------- ----17- 20222017
B|-------------------------------|-------------------------B-R-P-|
G|-------------------------------|-------------------------------|
D|-------------------------------|-------------------------------|
A|-------------------------------|-------------------------------|
E|-------------------------------|-------------------------------|

e|------- ------- ------- -------|------- ------- ------- -------|


B|--------------------------6-6--|--------------------------6-6--|
G|--------------------------5-5--|--------------------------5-5--|
D|7---7---9---9---7---7-5H7------|7---7---9---9---7---7-5H7------|
A|5---5---5---5---5---5-5--------|5---5---5---5---5---5-5--------|

E|-------------------------------|-------------------------------|
Come
Yeah
together
e|------- ------- ------- -------|------- ------- ------- -------|
B|--------6---3-----------1------|----0--------------------------|
G|--------5---4-----------2------|----0-----------2--------------|
D|----0---------------0----------|0---------------3--------------|
A|-------------------------------|------------5------------------|
E|-------------------------------|-------------------------------|
e|20B22-~ ------- ------- -------|------- ------- ---13-- 15161513
B|-------------------------------|-------------------------B-R-P-|
G|-------------------------------|-------------------------------|
D|-------------------------------|-------------------------------|
A|-------------------------------|-------------------------------|
E|-------------------------------|-------------------------------|

e|------- ------- ------- -------|------- ------- ------- -------|


B|--------------------------6-6--|-------------------------------|
G|--------------------------5-5--|-------------------------------|
D|7---7---9---9---7---7-5H7------|7---7---9---9---7---7-5H7-7-7--|
A|5---5---5---5---5---5-5--------|5---5---5---5---5---5-5-----5--|
E|-------------------------------|-------------------------------|
Ah!
e|------- ------- ------- -------|------- ------- ------- -------|
B|--------6---3-----------1------|----0--------------------------|
G|--------5---4-----------2------|----0-----------2--------------|
D|----0---------------0----------|0---------------3--------------|
A|-------------------------------|------------5------------------|
E|-------------------------------|-------------------------------|
e|15B17-~ ------- ------- -------|------- ------- ------- -------|
B|-------------------------------|-------------------------------|
G|-------------------------------|--------------------10-B13R12P10
D|-------------------------------|-------------------------------|
A|-------------------------------|-------------------------------|
E|-------------------------------|-------------------------------|

e|------- ------- ------- -------|------- ------- ------- -------|


B|--------------------------8----|--------------------------8----|
G|--------------------------7-7--|--------------------------7-7--|
D|7---7---9---9---7---7-7/9---9\7|7---7---9---9---7---7-7/9---9\7|
A|5---5---5---5---5---5-5--------|5---5---5---5---5---5----------|
E|-------------------------------|-------------------------------|
Come
Yeah
together
e|------- ------- ------- -------|------- ------- ------- -------|
B|--------6---3-----------1------|----0--------------------------|
G|--------5---4-----------2------|----0-----------2--------------|

D|----0---------------0----------|0---------------3--------------|
A|-------------------------------|------------5------------------|
E|-------------------------------|-------------------------------|
e|------- ------- ------- -------|------- ------- ------- ---R---|
B|13B15-~------------------------|--------------------1315131513-|
G|-------------------------------|---------------------B---B---15|
D|-------------------------------|-------------------------------|
A|-------------------------------|-------------------------------|
E|-------------------------------|-------------------------------|
............................. Fade ............................

e|------- ------- ------- -------|------- ------- ------- -------|


B|-------------------------------|-------------------------------|
G|--------------------------7-7--|-------------------------------|
D|7---7---9---9-------7-7/9---9--|7---7---9---9---7---7---9---9--|
A|5---5---5---5-------5----------|5---5---5---5---5---5---5---5--|
E|-------------------------------|-------------------------------|
Come
Yeah
together
e|------- ------- ------- -------|------- ------- ------- -------|
B|--------6---3-----------1------|----0--------------------------|
G|--------5---4-----------2------|----0-----------2--------------|
D|----0---------------0----------|0---------------3--------------|
A|-------------------------------|------------5------------------|
E|-------------------------------|-------------------------------|
e|------- ------- ------- -------|------- ------- ------- -------|
B|13B15-~------------------------|-------------------------------|
G|-------------------------------|-------------------------------|
D|-------------------------------|-------------------------------|
A|-------------------------------|-------------------------------|
E|-------------------------------|-------------------------------|
...............................................................

B
R
/
\
H
P
~
+
x
.
^
(.

Bend
Release
Slide up
Slide down
Hammer-on
Pull-off
Vibrato
Harmonic
Mute note
Play note like a dot in standard notation
Ties two notes together
Pause

This is the main riff:


e-----------------------------b-----------------------------g-----------------------------d-------------2-0---4----0-2---a----------2------2----2-------e--0--3-4----------------------This is a variation of the verse:
E--------------------------------B---------------------------------G-------------2-0----4----0-2----D----------2------2----2---------A--0--3-4------------------------E---------------------------------Chorus:

F#
She was a daaa-y tripper, one way ticket yeah!
A
G#
It took me so-o long
C
B
to find out, and i found out.
Then:
E------------------------------------------------B----------------------2-------------------------G-4-----------4--2-----------2--4----------------D-4--0--1--4--------4-----4----------------------A-2----------------------------------------------E------------------------------------------------repeat it 3 times and then
Solo:
E--------------------------5b-----------B--------3------3---5h-7--------7---5---G-4---4-----4---------------------------D---------------------------------------A---------------------------------------E---------------------------------------E-----------10-------10---12b14b12---10--------------B-12~--12~-------12-----------------------12---------G----------------------------------------------------D----------------------------------------------------A----------------------------------------------------E----------------------------------------------------you play a variation in the 3rd verse
e------------------------------

b-----------------------------g-----------------------------d--------------2-0----4----0-2a-----------2-------2----2----e--0--3h-4--------------------E-----------------------------B-----------------------------G--------------2-0-----4----0-2
D-----------2-------2-----2---A--0--3h-4--------------------E-----------------------------then repeat the main riff and fade out
chords used:
F#
2
2
3
4
4
2

A
0
2
2
2
0
0

G#
4
4
5
6
6
4

C
4
6
6
6
4
4

B
2
4
4
4
2
2

C
Em
Ahh, look at all the lonely people.
C
Em
Ahh, look at all the lonely people.
Em
Em7
C
Eleanor Rigby picks up the rice in a church where a wedding has been.
Em
Lives in a dream.
Em
Em7
C
Waits at the window, wearing a face that she keeps in a jar by the door,
Em
Who is it for?
Em7
Em6
All the lonely people,
C
Em
Where do they all come from?
Em7
Em6
All the lonely people,
C
Em
Where do they all belong?
Em
Em7
C
Father MacKenzie, writing the words of a sermon that no one will hear,
Em
No one comes near.
Em
Em7
C
Look at him working, darning his socks in the night when there's nobody there.
Em
What does he care?
Em7
Em6
All the lonely people,
C
Em
Where do they all come from?
Em7
Em6
All the lonely people,
C
Em
Where do they all belong?
C
Em
Ahh, look at all the lonely people.
C
Em
Ahh, look at all the lonely people.
Em
Em7
C
Eleanor Rigby died in a church and was buried along with her name,
Em
Nobody came.
Em
Em7
C
Father MacKenzie wiping the dirt from his hands as he walks from the grave,
Em

No one was saved.


Em7
Em6
All the lonely people,
C
Em
Where do they all come from?
Em7
Em6
All the lonely people,
C
Em
Where do they all belong?