Happy Ukulele !

 

たのしいウクレレ教室
Ukulele Start Book

はじめのテキスト
 Mahalo Ito      作・編 
 目

1. 基本的なこと
2. チューニング
3. タブ譜
4. 最初のコード
5. バンプ
6. リズム
7. スケール(ドレミ)
8. むずかしいコード
9. やさしい練習曲
極楽ソング
明日があるさ
上を向いて歩こう
月の夜は
小さな竹の橋
知床旅情
10.ソロスタイルの練習曲
オーラリー(Love Me Tender)
さとうきび畑
カイマナヒラ

Happy Ukulele ! 

基本的なこと
ウクレレを演奏する前に、持ち方と左右の手の形について考えてみましょう。
気を付けるべきポイントをあげておきます。

いちばんの基本:
力を抜いて、リラックスしてください
持ち方:
ウクレレを寝かせない
抱きしめない(ひきつけ過ぎない)
左脇に余裕(ゆったりと空間)を持とう

右 手:
人差し指で、ホール(ウクレレの穴)より上のあたりを弾こう
手首はやわらかく、そしてスナップを効かせよう
手首が下がっていませんか(手の甲と腕が一直線にならない)
人差指がカギ型にまがっていませんか

左 手:
力まない、握りしめない
親指に力が入りすぎていませんか
自分にあったホールドポイント(ネックを支える点)を見つけよう

Happy Ukulele ! 

チューニング(調弦)
チューニングの種類
ウクレレの代表的なチューニングには「ハイG(High G)」と「ローG(Low
G)」の2種類があります。2つのおもな違いは、4弦の音程が高い(High)か低
い(Low)かです(このためロー G では4弦に巻弦/太い弦を使用します)。教室
では、より一般的なハイGを使います。

ウクレレ各弦の順番と音
1弦から4弦とその音を見てみましょう。ウクレレを構えたときに、いちばん下に
来るのが1弦です。下から1弦 → 4弦となります。

1弦 : ラ
2弦 : ミ
3弦 : ド
4弦 : ソ
チューニングの道具について
ウクレレのチューニング用に、ピッチパイプやチューニングメーターが市販されて
います。ピッチパイプは調弦用の笛で安価です。ただし正確さと便利さではチュー
ニングメーターに利があります。最近では価格ももかなり安くなっています。特に
音を耳で聴き分ける自信がないと感じている方にはチューニングメーターの利用を
おすすめします。
­ ­ ­ ­ ­ ­ ­ ­ ­ ­ ­ ­ ­ ­ 上級編 ­ ­ ­ ­ ­ ­ ­ ­ ­ ­ ­ ­ ­ ­ ­ 

チューニングのポイント
チューングするときのポイント
●チューニングは低い音の弦から高い方へと合わせる
●弦巻(ペグ)をしめながら音を合わせる
  (ペグをゆるめながら音を合わせない)
●チューニングが高くなったら、低く弦をゆるめて、
     弦を張りながらあわせる
各開放弦を合わせた後に、フレットを押さえて音程を確認する方法があります(ハ
イGの場合)。
●第2弦の開放弦の「ミ」と第3弦の第4フレット、つまり同じ「ミ」の
   音を弾いて、第2弦と同じ音程になるかどうかを確認します。
●第4弦2フレットの「ラ」と第1弦の開放弦が同じ音程になるか
●第2弦5フレットの「ラ」と第1弦の開放弦が同じ音程になるか
●第4弦8フレットが第3弦の開放弦と同じ音程になるか
ウクレレにはフレットによって同じ音程となる場所がたくさんあります。それぞれ
で確認して同じ音程になるかを確認することができます。これは音程の微調整にも
役立ちます。

Happy Ukulele ! 

タブ譜
ウクレレ用の楽譜としてよく使われるのが「タブ譜」です。音符で書かれた一般的
な楽譜よりもずっとわかりやすいものです。タブ譜では、押えるべき場所を●印や
番号などで示し、絵として理解できるのでとてもかんたんです。

タブ譜の見方・読み方
●弦とタブ譜の対応(上下)に注意
 一般的なタブ譜は、上から下へ、ウクレレの 1 弦から 4 弦を表わします。
●タブ譜は 2 種類
絵で表わすタイプと数字で表わすタイプの 2 種類あります。

絵で表わすタイプ

数字で表わすタイプ

A
E
C
G

C
|----3------|-|----0------|-|----0------|-|----0------|--

Happy Ukulele ! 

最初のコード
ウクレレ演奏でよく使う基本的なコードを覚えましょう。一度にすべて暗記する必
要はありません。練習曲などを演奏しながら、ゆっくりと少しずつ身につけていき
ましょう。

Happy Ukulele ! 

バンプ
「バンプ」はハワイアンにかかせない定番の演奏パターンです。前奏などにひんぱ
んに使われます。基本的なバンプはやさしいものばかりです。コードをおぼえるの
にもちょうどよいので、バンプを練習しながら基本的なコードを覚えましょう。

Gのバンプ:A7 D7 G
A
E
C
G

A7
D7
G
|----0-----0-----0-----0----|----2-----2-----2-----2----|
|----0-----0-----2-----2----|---(3)---(3)---(3)---(3)---|
|----1-----1-----0-----0----|----2-----2-----2-----2----|
|----0-----0-----2-----2----|----0-----0-----0-----0----|

Cのバンプ:D7 G7 C
A
E
C
G

D7
G7
C
|----0-----0-----2-----2----|----3-----3-----3-----3----|
|----2-----2-----1-----1----|----0-----0-----0-----0----|
|----0-----0-----2-----2----|----0-----0-----0-----0----|
|----2-----2-----0-----0----|----0-----0-----0-----0----|

Fのバンプ:G7 C7 F
A
E
C
G

G7
C7
F
|----2-----2-----1-----1----|----0-----0-----0-----0----|
|----1-----1-----0-----0----|----1-----1-----1-----1----|
|----2-----2-----0-----0----|----0-----0-----0-----0----|
|----0-----0-----0-----0----|----2-----2-----2-----2----|

Happy Ukulele ! 

リズム
ウクレレは、右手の人差し指を使ってポロンと鳴らすのが流儀です。気持ちよく鳴
らすためにリズムの種類を覚えましょう。

基本的なリズムの数え方

長さ
4分音符
8分音符
2分音符
全音符

数え方
タン

ターア
ターアーアーアー

人差し指のひと振りのことを「ストローク」と呼んでいます。基本的なストローク
には「ダウン」と「アップ」の2種類があります。アップとダウンを組み合せて、
いろんなリズムを演奏することができます。

バンプのリズム練習
アクセントに気を付けて、強弱がはっきりとわかるように演奏しましょう。

Happy Ukulele ! 

スケール:ドレミ
ウクレレでメロディーを奏でるには、ドレミを覚えなければなりませんね。ドレミ
がどこにあるかが確認できたら、ドレミを使って指の練習をしましょう。(ここで
は基本となる C のスケールを使って練習をします)



5
8
|------|--シ--|--ド--|------|--レ--|------|--ミ--|-ファ-|-|-ファ-|------|--ソ--|------|--ラ--|------|--シ--|--ド--|-|------|--レ--|------|--ミ--|-ファ-|------|--ソ--|------|-|------|--ラ--|------|--シ--|--ド--|------|--レ--|------|--

練習のポイント
・右手は親指と人差し指を使う
・自分の音をよく聴こう
・1音1音づつていねいに弾く

豆知識:ドレミを英語でいう場合、次のように呼んでいます。

ド レ ミ ファ ソ ラ シ ド
C D E F  G A B C

Happy Ukulele ! 

むずかしいコード
演奏に少し慣れてきたら、左手の人差し指でフレットを「セーハする」(1から4
弦まですべて押える)コードに挑戦しましょう。セーハを覚えると、使えるコード
の数が倍増します。がんばってください。
まずは、基本的なコードをセーハの形で押えてみましょう。

Happy Ukulele ! 

フレットの仕組み
フレットの仕組みを理解すれば、セーハのコードの関連が見えてきます。使えるコ
ードの数を倍増させるポイントがここにあります。
そのための準備として、ドレミを英語でC、D、Eと呼んで、フレット上のドレミ
の位置を再確認しましょう。

A
E
C
G

5
12
|---|-B-|-C-|---|-D-|---|-E-|-F-|---|-G-|---|-A-|---|-B-|--|-F-|---|-G-|---|-A-|---|-B-|-C-|---|-D-|---|-E-|-F-|---|--|---|-D-|---|-E-|-F-|---|-G-|---|-A-|---|-B-|-C-|---|-D-|--|---|-A-|---|-B-|-C-|---|-D-|---|-E-|-F-|---|-G-|---|-A-|--英語読み
ド レ ミ ファ ソ ラ シ ド
C D E F  G A B C

同じ形をスライド(平行移動)させる

ある形の押え方をフレットの上でスライド(平行移動)させると、同じ押え方で数
種類のコードを演奏することができます。
コード C のセーハの形を使って、確認してみましょう。

A
E
C
G

5
12
|---|-@-|-*-|---|-@-|---|-*-|-@-|---|-*-|---|-@-|---|---|--|---|-@-|-*-|---|-@-|---|-*-|-@-|---|-*-|---|-@-|---|---|--|-*-|---|-@-|-*-|---|-@-|---|-*-|-@-|---|-*-|---|-@-|---|--|---|-*-|---|-@-|-*-|---|-@-|---|-*-|-@-|---|-*-|---|-@-|--A---*
E-------*
B-------@
F-------@
C-------*
G-------*
D-------@
A-------@

Happy Ukulele ! 

やさしいコードの練習曲
●極楽ソング

WORD by UKULELE USAGI

Key:G VAMP:A7 D7 G
G
C
G
グラスの向こうには ピンクの花がすみ
C
G
A7 D7 G
気の合う仲間が集まる 春は極楽
G  
C  
G
大好きなアロハ着て 椰子の樹の葉陰
C
G
A7 D7 G
ロックのグラスも汗かく 夏は極楽
G   
C   
G
まつたけ秋刀魚かぼす シメジ舞茸 秋茄子
C
G
A7 D7 G
満月もにっこり笑う 秋は極楽
G    
C    
G
ホットウィスキー両手で包み冷えたハートもあったまる
C
G
A7 D7 G
あの娘と星を見上げる 冬は極楽
A7
D7 G
とても極楽
なぜか極楽
とても極楽 !

A7
D7 G
1年
極楽
だから 極楽

□使うコードはこれだけ

A
E
C
G

A7
D7
G
C
|---0----0----2----3---|
|---0----2----3----0---|
|---1----0----2----0---|
|---0----2----0----0---|

Happy Ukulele ! 

●明日があるさ(オリジナル)
作詞:青島幸男 作曲:中村八大
Key:G VAMP:A7 D7 G
 G    C   G
(Em)A7 D7
いつもの駅でいつも逢う
セーラー服の お下げ髪
 G   G7 C  A7 G D7  G
もうくる頃  もうくる頃 今日も待ちぼうけ
 G    C  A7 G  D7 G
明日がある 明日がある 明日があるさ
ぬれてるあの娘コウモリへ さそってあげよと待っている
声かけよう 声かけよう だまって見てる僕
明日がある 明日がある 明日があるさ
今日こそはと待ちうけて うしろ姿つけて行く
あの角まで あの角まで 今日はもうヤメタ
明日がある 明日がある 明日があるさ
思いきってダイヤルを ふるえる指で回したよ
ベルがなるよ ベルがなるよ 出るまで待てぬ僕
明日がある 明日がある 明日があるさ
はじめて行った喫茶店 たった一言好きですと
ここまで出て ここまで出て とうとう云えぬ僕
明日がある 明日がある 明日があるさ

 G    C   G
(Em)A7 D7
明日があるさ明日がある
若い僕には 夢がある
 G   G7 C  A7  G  D7   G
いつかきっと いつかきっと わかってくれるだろう
 G    C  A7 G  D7 G
明日がある 明日がある 明日があるさ

Happy Ukulele ! 

●上を向いて歩こう
G
Em
G
Em
上を向いて歩こう
G Bm
Em
D
涙 がこぼれないように
G
Am7 C
B7 Em Bm
G
思い出す 春の日 一人ぽっちの夜
上を向いて歩こう
にじんだ星をかぞえて
思い出す 夏の日 一人ぽっちの夜
C
G
C
Cm
G
D7
幸せは 雲の上に 幸せは 空の上に
G
Em
G
Em
上を向いて歩こう
G Bm
Em
D
涙がこぼれないように
G
Am7 C B7 Em Bm
G
泣きながら 歩く
一人ぽっちの夜
(口笛……)
思い出す 秋の日 一人ぽっちの夜
悲しみは星のかげに
悲しみは月のかげに
上を向いて歩こう
涙がこぼれないように
泣きながら 歩く一人ぽっちの夜
一人ぽっちの夜
□マイナーコードを覚えよう

A
E
C
G

Cm
Em
Am7 Bm
B7
|---3----2----0----2---|---2---|
|---3----3----0----2---|---2---|
|---3----4----0----2---|---3---|
|---5---(4)---0----4---|---2---|

Happy Ukulele ! 

●月の夜は
Key:G VAMP:A7 D7 G
G
G7 C
Cm
月の夜は 浜に出て
G
D7
G
みんなで踊ろう ヤシの葉影
G
G7 C
Cm
手を腰に ウクレレに
G
D7
G
あわせて踊ろう フラの踊り

A7 / D7

F#7
きれいなレイを あげましょう
Bm
踊り仲間の あなたに
F#m
D
花の冠 あげましょう
A7
D7
踊りじょうずな あなたに
G
G7 C
Cm G
D7
G
踊り手が
そろったら さあさ踊ろ 今宵ひと夜
□新しく出てきたコード

A
E
C
G

Cm
F#7
F#m
|---3----4-----0----|
|---3----2-----2----|
|---3----4-----1----|
|---5----3-----2----|

Happy Ukulele ! 

●小さな竹の橋
Key:G VAMP:A7 D7 G
G
B7 E7
小さな橋 よ
D7
河の水に
G
B7 E7
あの日の夢 も
D7
河の水に

E7
A7
竹の橋の下
D7
G
E7
流れて行く
A7
楽し思い出も
D7
G
C
流れて行く

A7

D7

G

G7

C Cm G G7
C
Cm G
長い年も 月も
水面を 彩 り
A7
D7
やがては消えて行く 赤い薔薇の花びら
G
B7 E7
小さな橋 よ
D7
恋も夢も

E7
A7
竹の橋の下
D7
G
流れて行く

C

□新しく出てきたコード

A
E
C
G

B7
E7
Cm
|---2----2----3---|
|---2----0----3---|
|---3----2----3---|
|---2----1----5---|

G

G7

Happy Ukulele ! 

●知床旅情
C
F
C
G7
C
知床の岬 に はまなすの咲くころ
C
F
C
G7
C
思い出しておくれ 俺たちの事を
G7
C
C7
F
C C7
飲んで騒い で  丘にのぼれば
F
C Am Em Dm7 G7
C
はるか国 後 に 白夜は明ける
旅の情けか 酔うほどにさまよい
浜に出てみれば 月は照る波の上
今宵こそ君を 抱きしめんと
岩影に寄れば ピリカが笑う
別れの日は来た ラウスの村にも
君は出てゆく 峠をこえて
忘れちゃいやだよ 気まぐれカラスさん
私を泣かすな 白いカモメよ

□新しく出てきたコード

A
E
C
G

Am
Em
Dm7
|---0----2----3----|
|---0----3----1----|
|---0----4----2----|
|---2---(4)---2----|

Happy Ukulele ! 

メロディーとコードを合わせて弾く練習曲
●Aura Lea / Love Me Tender

A
E
C
G

G
A7
D7
G
/
/
/
/
/
/
O
/
/
/
/
O
O
|--2---2----------|-(0)-----(0)-----|--0---0---0---0--|--2-------2------||--3--(3)-(2)-(3)-|--0--(0)--0------|-(3)-(2)-(0)-(2)-|-(3)------3------||-(2)--2----------|--1-------1------|--0---0---0---0--|--2-------2------||--0---0----------|--0-------0------|--2---2---2---2--|--0-------0------|-

A
E
C
G

G
A7
D7
G
/
/
/
/
/
/
O
/
/
/
/
O
O
|--2---2----------|-(0)-----(0)-----|--0---0---0---0--|--2-------2------||--3--(3)-(2)-(3)-|--0--(0)--0------|-(3)-(2)-(0)-(2)-|-(3)------3------||-(2)--2----------|--1-------1------|--0---0---0---0--|--2-------2------||--0---0----------|--0-------0------|--2---2---2---2--|--0-------0------|-

A
E
C
G

G
G7
* C
(Cm)
G
/
/
O
/
/
O
/
/
/
/
O
O
|-(2)-(2)-(2)-----|-(2)-(2)-(2)-----|-(2)-(0)--3---3--|-(2)------2------||--3---3---3------|--1---1---1------|--0---0--(3)-(5)-|--3-------3------||--2---2---2------|--2---2---2------|--0---0---3---0--|--2-------2------||--0---0---0------|--0---0---0------|--0---0---0------|--0-------0------|-

A
E
C
G

G
E7
A7
** D7
G
/
/
/
/
/
/
O
/
/
/
/
/
/
O
|-(2)-(2)-(3)-(2)-|-(0)-----(0)-----|--0---0--(2)-(0)--|--2-------2------||--3---3---0---0--|--0--(0)--0------|-(3)-(2)--2---2---|-(3)------3------||--2---2---2---2--|--1-------1------|--0---0---0---0---|--2---2---2------||--0---0---1---1--|--0-------0------|--2---2---2---2---|--0-------0------|-

注)やさしく弾くためのバリエーション
* C
(Cm)
A |--2---0---0---0--|E |--0---0---3---0--|C |--0---0---0---0--|G |--0---0---0---0--|歌詞
G
A7
Love me tender, love me sweet,
G
A7
You have made my life complete

A
E
C
G

** D7
|--0------(2)-(0)-||-(3)-(2)---------||--0--------------||--2--------------|-

D7
G
Never let me go.
D7
G
And I love you so.

G
G7
Love me tender, love me true,
C
Cm
G
All my dreams fulfill.
G
E7
A7
D7
G
For, my darling, I love you And I always will.

Happy Ukulele ! 

●さとうきび畑 KeyF ukulele 用
(C7)
F
|------------0--------------0----|------------0----0---0---||--(1)-(3)--(1)-------------1----|--(1)-(3)--(1)---1---1---||------------0----(0)-(2)--(0)---|------------0----0---0---||------------2--------------2----|------------2----2---2---|ざ わ わ
ざ わ わ
ざ わ わ
F
C7
|-----------(0)---(0)-(3)--(3)---|--(3)-(0)-(0)----------1--||--(1)-(3)---1--------------1----|-----------1--(3)-(1)--0--||------------0--------------0----|-----------0-----------0--||------------2--------------2----|-----------2-----------0--|ひ ろ い
さ と う
き び ば た け は
F
Dm
F
|------------0--------------0----|------------0----0---0---||--(1)-(3)--(1)-------------1----|--(1)-(3)--(1)---1---1---||------------0----(0)-(2)--(0)---|------------2----2---0---||------------2--------------2----|------------2----2---2---|ざ わ わ
ざ わ わ
ざ わ わ
F
C7
F
|----------(0)-(0)---------(0)-(3)--|-----------0---0---0---||--(1)-(3)--1------(3)-(1)--0-------|------(3)-(1)--1---1---||-----------0---------------0-------|--(0)------0---0---0---||-----------2---------------0-------|-----------2---2---2---|か ぜ が と お り ぬ け
る だ け
D7
Gm
C
|--(0)-(1)-(3)---(3)-(3)-(3)--|--(3)-(3)-(3)---(5)-(3)--(3)-||-----------2-------------2---|-----------1--------------0--||-----------2-------------2---|-----------2--------------0--||-----------2-------------2---|-----------0--------------0--|きょう も
み わたす
か ぎりに
ぎ り に
F
Dm
A
|--(3)-(1)-(0)---(0)-(0)-(0)-(0)--|------------0---0---0--||-----------1-------------1-------|--(3)-(1)--(0)--0---0--||-----------0-------------2-------|------------1---1---1--||-----------2-------------2-------|------------2---2---2--|み ど り
の な み が
う ね る
Dm
Bb
C7
|-----------0-----------(5)--|--_5_-(3)-(1)-(0)----------1--|
|----------(1)--(1)-(1)--6---|------------------(3)-(1)--0--|
|--(2)-(2)--2------------5---|---------------------------0--|
|-----------2----------------|---------------------------0--|
な つ の ひ ざ し
の な ぁ か ぁ で

Happy Ukulele ! 

●カイマナヒラ Key C
┌-VAMP-----------------------------D7
G7
C
A |----0-------2-3--|--3--3--3-----|E |-3----3-1-3------|--0--0--0--3--|C |-----------------|--0--0--0-----|G |-----------------|--0--0--0-----|-

A
E
C
G

F
F
C
C
||--0--0--------|--0--3--2-0--|--3--3--3-------|--3--3--3-----|||o-1--1-----3--|--1----------|--3--3--3--5-3--|--0--0--0--1--|||o-0--0--------|--0----------|--0--0--0-------|--0--0--0-----|||--2--2--------|--2----------|--0--0--0-------|--0--0--0-----|-

A
E
C
G

G
G7
C
C7
F
|----2--2-----|-----2--------|--3-----1------|--0--3-3--8--8--||-3--3--3--1--|-----1--3--1--|--0-----0------|--1-------------||----2--2-----|--2--2--------|--0-----0------|--0-------------||----0--0-----|-----0--------|--0-----0------|--2-------------|-

A
E
C
G

C
G
G7
C
|-7--7--7--7--|--2-----2--7--|--5-----|--3----------||-0--0--0--0--|--3--3--3-----|--5-----|--0----------||-0--0--0--0--|--2-----2-----|--5-----|--0----------||-0--0--0--0--|--0-----0-----|--5-----|--0----------|-

┌-VAMP-----------------------------D7
G7
C
A |----0-------2-3--|--3--3--3------||E |-3----3-1-3------|--0--0--0--3--o||C |-----------------|--0--0--0-----o||G |-----------------|--0--0--0------||-

Sign up to vote on this title
UsefulNot useful