You are on page 1of 46

bHappy BirthDay tune

String B
0-0-2-0-5-4
0-0-2-0-7-5
0-0-9-7-5-4-2
10-10-9-5-7-5

Kal ho na ho – Har ghadi badal rahi

E|-----------------------10-8---------------------------------------|
B|-11--10-11--10-11-10-11------10--10---8-10-8-10-------------------|
G|------------------------------------------------------------------|
a# a a# a a# a a#dc a a gaga
Har Ghadi Badal Rahiii Hai Roop Zindagi
Chaav Hai Kahhi kabhii Hai Dhoop Zidnagi

E|-----------6------------------------------------------------------|
B|--6---8-------8-------6---8-6-------------------------------------|
G|------------------8-----------------------------------------------|
f g a# g d# f gf
har pal yahaaN jee bhar jiyo

E|---------6--------------------------------------------------------|
B|--6--8------8---9---8------6--------------------------------------|
G|------------------------8-----------------------------------------|
f g a# g g# g d# f
jo hai samaa kal ho na ho

E|-5-6----8---5--------------------5-6-8--5-------------------------|
B|-------------6--------------6---------------6-----------8---------|
G|------------------8-7-----8---------------------8-7-8-------------|
aa# c af d#d d# f, aa# c a f d#dd# g
chaahe jo tumhein poore dil se, miltaa hai vo mushkil se

E|------11--10--8----------------------11-10-8----------------------|
B|-10-11---------11---10-10-11---10-11----------11-10-10-11-8-6-----|
G|------------------------------------------------------------------|
a a# d# d c a# a a a#, a a# d# d c a# a a a#gf
aisaa jo koi kahin hai, bas vohi sabse hasin haiii

E|--------6------------------------6--------------------------------|
B|-6-8------8-------6-8--6---6--8----8----9--8--------6-------------|
G|---------------8-------------------------------8-----------------|

f g a# g d# fg f, f g a# g g# g d# fbv

PAL PAL HAR PAL

Pal Pal Pal Pal Har Pal Har Pal


E |--------4--2--2-4--2--2-4--2-------
B |--0--2------------------------------
Kaise Katega Pal Har Pal Har Pal
E |--4--2--0-----2--0--0-2--0--0-2-0-----
B |-----------2----------------------------
Dil Dil Dil Dil Mein Machi Hai Machi
E |--0--2--4--5--5-7-5--5-7-5-------------
Machi Hai Hulchul Hulchul Hulchul
E |--7--5--4--2--5--4--4-5-4--4-5-4-------
Kaise Katega Pal Har Pal Har Pal
E |--5--4--2--0--4--2--2-4-2--2-4-2-------
Kaise Katega Pal Har Pal Har Pal
E |--4--2--0------2--0--0-2-0--0-2-0-------
B |------------2----------------------------

Stanza :----------

Oo Humsafar Lagta Hai Darr


E |--0--2--4--2--2--4--5--4------------
Raat Katey Na Kabhi Ho Sahar
E |--0--2--4--2--0----------2------0---------
B |-----------------4-2--2------4------------
Iss Pal Mein Simte Umar
E |--0--2--4--2--2--4--5-7--4----------------
Raat Katey Na Kabhi Ho Sahar
E |--0--2--4--2--0----------2------0----------
B |-----------------4-2--2------4--------------

Dhadkan

E -----5---8---7-------5-----------7----5---------------
B -6--------------8----------5--8-----------8---6--------

Tum dil ki, dhadkan mein, rehte ho, tum rehte ho


E -----5---8---7-------5-----------7----5---------------
B -6--------------8----------5--8-----------8---6--------

Meri in, saanson se, kehte ho, kehte ho

E -12---10-------10----------------------------------------
B ---------12-------12-10--12-10--8------10--8--6----------

Baahon mein, aa jao, sapnon mein, kho jaao

E -----5---8---7-------5-----------7----5---------------
B -6--------------8----------5--8-----------8---6--------

Tum dil ki, dhadkan mein, rehte ho, tum rehte ho

--------------------------------------------------------------------------------

E -8--8--8-8---12----------------10------------------------
B ------------------12-12--12-12----12-10-12---10--10------
Deewano sa, haal hua, humko to unse, pyaar hua

E -8--8---8--8----12----------------10---------------------
B --------------------12-12--12-12-----12-10-12-10-10------
Dheere se voh, paas aaye, chupke se izha ar hua

E -----7---9-10----10-9-----7-------------8--8-7-------------
B --8--------------------10--------7---10--------10--8---------
Ab naa kisi se darna hai, sang jeena, marna hai

--------------------------------------------------------------------------------

E -12---10-------10----------------------------------------
B ---------12-------12-10--12-10--8------10--8--6----------
Baahon mein, aa jao, sapnon mein, kho jaao

E -----5---8---7-------5-----------7----5---------------
B -6--------------8----------5--8-----------8---6--------
Tum dil ki, dhadkan mein, rehte ho, tum rehte ho
Tujhe Dekha To yeh yeh Jana sanam

E -------9-7-9------7-10-9--------------
B -7-7-7--------10----------------------
G --------------------------------------
D --------------------------------------
A --------------------------------------
E --------------------------------------
tujhey dekha tu yea jana sanam

E -------9-7-9------7-------------------
B -7-7-7--------10------10-9------------
G --------------------------------------
D --------------------------------------
A --------------------------------------
E --------------------------------------

pyar hota hai dewanna sanam

E --------------------------------------
B ---7-9-----7-9-----7-10-9-------------
G -------9--------9---------------------
D -----7-----7--------------------------
A --------------------------------------
E --------------------------------------
abb yahan se kahan jaien hum

E --------------------------------------
B ---7-9-----7-9-----10-9-7-------------
G -------9--------9---------------------
D -----7-----7--------------------------
A --------------------------------------
E --------------------------------------

teri bahoun mein mar jaien him

E --------------------------------------
B --------------------------------------
G -4-6---4-6---4-7-6--------------------
D -----7-----7--------------------------
A --------------------------------------
E --------------------------------------
E --------------------------------------
B -------10-8-7-------7-----------------
G -6-7-9--------9-7-9---9-7-6-----------
D ----------------------------9---------
A --------------------------------------

Ajeeb dastan hain yeh

E----9-7---9---7----------------------9--7----9---7-------------------------
B------------------9--7--------9---------------------9---7---------7--------
G--------------------------9-----------------------------------9------------
D---------------------------------------------------------------------------

A jee b daa s tan hai yeh ka haan shu ru ka haan kha tam

E------------------------------------------9---7--9----7--------------------
B----9---7---9---7----------------------------------------9--7--------------
G--------------------9----8---6--8-------------------------------6---9------
D---------------------------------------------------------------------------

yeh man zi len hain ka un si na woh sama jh sa ke na hum

E------------------------------------------9---7--9--7---5---5--9---7-------
B-------7--9--10--9--10--7---10---------------------------------------------
G---8-----------------------------------------------------------------------
D---------------------------------------------------------------------------

Yeh ro sh ni ke saa th kyon dhu an u tha chi ra g se

E---11--11---9--11--9--7--5----7-----------7--7---9--7----------------------
B-------------------------------------------------------9----7--5------5----
G------------------------------------------------------------------6--------
D---------------------------------------------------------------------------

Yeh Khwa b de kh ti hoon main ki jug pa ri hoon kh wa b se

Author/Artist: Sonu Nigam/Sukhwinder Singh


Title: Sandese aathe he
Album: Border
Transcribed by: Kushwant Singh
Email: Kushyx@hotmail.com

This is a cool tune to play on guitar. Quite easy as well.

----------9-7-9-------------9-7-9-------------9-7-9---------- ----9-7-9------
-5-5-5-------------5-5-5------------5-5-5--------------5-5-5-----------------
------------------------------------------------------------------------------
------------------------------------------------------------------------------
------------------------------------------------------------------------------
------------------------------------------------------------------------------

---------------------------------------------7-7-7-7-9-9-7-7-9-9-7--12-10--9--------
-10-9-7-5-7-7/9--5-7-9-5-7-9-5-7----------------------------------------------
------------------------------------------------------------------------------
------------------------------------------------------------------------------
------------------------------------------------------------------------------
------------------------------------------------------------------------------

Ek Ladki Ko Dekha To Aisa Laga

------------------------------------------------------1
------1----3--1-----------------------1---------1-----
--3-------------------3-----------3--------3----------
----------------------------3--------------------------
-------------------------------------------------------
-------------------------------------------------------

-------------------------------------------------------1
------1----3--1-----------------------1---------1-----
--3-------------------3-----------3--------3----------
----------------------------3--------------------------
-------------------------------------------------------
-------------------------------------------------------

Little Part that repeats throughout the song, starts after the intro above
-helps to release strings right after playing this section to mute them so
it sounds like the song

---1--1------1--1---
---------------------
---3--3------3--3---
---------------------

E k ladki ko dekha to aisa


laga
----6-----6-----5---6------8------5----6----8----5---8----5----6
-------------------------------------------------------------------
--------------------------------------------------------------------
--------------------------------------------------------------------
--------------------------------------------------------------------
--------------------------------------------------------------------

E k ladki ko dekha to aisa


laga
----6-----8----5---6------8------5----6----8----5---8----5----6
-------------------------------------------------------------------
--------------------------------------------------------------------
--------------------------------------------------------------------
--------------------------------------------------------------------
--------------------------------------------------------------------

The lyrics for the next part change in the song but the notes are the same

jaise khil taa gulaab jiase

------6---6-----5---6----1----5----3-----------5----6------------
-------------------------------------------------------------------
--------------------------------------------------------------------
--------------------------------------------------------------------
--------------------------------------------------------------------
--------------------------------------------------------------------

shaa yaar ka kwaab jaise u ja

-----5----6-----1----5----3------------5----6-----5---6---------
------------------------------------------------------------------
-------------------------------------------------------------------
--------------------------------------------------------------------
--------------------------------------------------------------------
--------------------------------------------------------------------

li ki ran jiase ban mein hi


ran
---1----5---3----3--3--5-----1------------3----1------1----------
-----------------------------------3---4---------------------------
--------------------------------------------------------------------
--------------------------------------------------------------------
--------------------------------------------------------------------
jaise chaand ni raat jaise

--1--1---3------------------3---1-----1--------------1----3--------
--------------4----3----4--------------------------------------------
-------------------------------------------------------------------
--------------------------------------------------------------------
--------------------------------------------------------------------
--------------------------------------------------------------------

nar mi baat jaise mandir


--------3-----6--------3---1------1---1-----1-------1----5----6-----
---4-------------------------------------------------------------------
-------------------------------------------------------------------
--------------------------------------------------------------------
--------------------------------------------------------------------
--------------------------------------------------------------------

mein ho ek jalta diya ohhhhh

---10----8-----8---8---5-----1---5----6--10---8------6--------------
-------------------------------------------------------------------
--------------------------------------------------------------------
--------------------------------------------------------------------
--------------------------------------------------------------------
--------------------------------------------------------------------

E k ladki ko dekha to aisa laga


----6-----8----5---6------8------5----6----8----5--10---5---6
-------------------------------------------------------------------
--------------------------------------------------------------------
--------------------------------------------------------------------
--------------------------------------------------------------------
--------------------------------------------------------------------

Hero tune

E|------10-12-10-12-10----------------------------------|
B|---8-----------------11--8--11-----------10--8--------|
G|------------------------------------------------------|
G d e d e d a# g a# a g

E|-----------9-10-12---12-15-15--13-13-10-9--8----------|
B|-11-11-10------------------------------------11-------|
G|------------------------------------------------------|
a# a# a, c# d e, e g g, f e d c# c a#

Tune of Karz

E|---4--2--4--5-----4--2--4--5------4--2--4--5-2-------|
B|-----------------------------------------------------|
G|-----------------------------------------------------|
G# F# G# A, G# F# G# A, G# F# G# A F#

E|---2--2-----2--4-1--------1-2-----4-4-----2----------|
B|---------4-------------------------------------------|
G|-----------------------------------------------------|
F# F# D# F# G# F , F F# G#G# F#

Title: Tum Paas Aaye


Album: Kuch Kuch Hota Hai

E|-------------------------------------------------------------------||
B|--0-1-----0-------0--------1---0----0-1----0-------0------3--1-0---||
G|-------------2-0-----------------------------2--0------------------||
D|---------------------0--2-----------------------------0--2--------2||
A|-------------------------------------------------------------------||
E|-------------------------------------------------------------------||

E|-------------------------------------------------------------------||
B|--0-1-----0-------0--0-1-----0-------0--0-1-----0------------------||
G|-------------2-0----------------2-0-----------2-----2--0----2------||
D|---------------------------------------------------------4-----0---||
A|-------------------------------------------------------------------||
E|-------------------------------------------------------------------||

E|-------------------------------------------------------------------||
B|-------------------------------------------------------------------||
G|---2--0----2-0-0--0------------------------------------------------||
D|-------------------------------------------------------------------||
A|-------------------------------------------------------------------||
E|-------------------------------------------------------------------||

E|------------------0--------------0-0-------------------------------||
B|---------------0-----3---------0------3----------------------------||
G|----0-0-----2-----------0-2----------------------------------------||
D|-------------------------------------------------------------------||
A|-------------------------------------------------------------------||
E|-------------------------------------------------------------------||

E|-------------------------------------------------------------------||
B|------0----------------------------------------------0-------------||
G|---2--------2--0-----------------2-0-----2-0-0-0-0-2---------------||
D|--------------------4-2-0------------------------------------------||
A|-------------------------------------------------------------------||
E|-------------------------------------------------------------------||

E|-------------------------------------------------------------------||
B|-------------------------------------------------------------------||
G|--2-0-----2-0-0-0-0------------------------------------------------||
D|-------------------------------------------------------------------||
A|-------------------------------------------------------------------||
E|-------------------------------------------------------------------||
Movie = Mein Nein Pyar Kiya
Song = Atte Jaate..Hanste Gaate
Tabs made by Umar
Comments @ umarboy@hotmail.com

E---3---7---7-8--------------------------------------------------
G----------------------------------------------------------------
D----------------------------------------------------------------
A----------------------------------------------------------------
E----------------------------------------------------------------
aate jaate

E--3-3-7---7-10-8-------------------------------------------------------
G----------------------------------------------------------------
D----------------------------------------------------------------
A----------------------------------------------------------------
E----------------------------------------------------------------
hanste gaate

E-3-7-7-8-10-12-10-8-7-6-----------------------------------------
G----------------------------------------------------------------
D----------------------------------------------------------------
A----------------------------------------------------------------
E----------------------------------------------------------------
soocha tha mein nein mun mein kaii bar etc etc

E-5-9--9-10---10-10-9---9-5--------------------------------------
G----------------------------------------------------------------
D----------------------------------------------------------------
A----------------------------------------------------------------
E----------------------------------------------------------------

E-5-9--9-9-10-10-12-10-7-7-8-------------------------------------
G----------------------------------------------------------------
D----------------------------------------------------------------
A----------------------------------------------------------------
E----------------------------------------------------------------
E-8-8-8-5---7(5)7---3-----3-3--7-7-8-----------------------------
G----------------------------------------------------------------
D----------------------------------------------------------------
A----------------------------------------------------------------
E----------------------------------------------------------------

E-8-8-5--7(5)7--3---3-3-7-10-8-----------------------------------
G----------------------------------------------------------------
D----------------------------------------------------------------
A----------------------------------------------------------------

Paapa Kehte He

e ||-0-0--------------1-0---|-0-0--------------1-0---|
B ||------3-1-1-----1-----3-|------3-1-1-----1-----3-|
G ||------------0-2---------|------------0-2---------|
D ||------------------------|------------------------|
A ||------------------------|------------------------|
E ||------------------------|------------------------|

e ||---------------------|-----------------|
B ||-----0-1-1-1-1-0-----|-----------------|
G ||-0-2-------------2-2-|-2-2-0---------0-|
D ||---------------------|-------3-3-2-3---|
A ||---------------------|-----------------|
E ||---------------------|-----------------|

e |----------------------------------------|
B ||-----0-1-1-1-1-0-----|-----------------|
G ||-0-2-------------2-2-|-2-2-0---------0-|
D ||---------------------|-------3-3-2-3---|
A |----------------------------------------|
E |----------------------------------------|

e ||-----------|-----------|-------------------0-|
B ||-----------|-----------|-1-1-0---0---0-1-3---|
G ||-0-0-0-2-0-|-0-0-0-2-0-|-------2---2---------|
D ||-----------|-----------|---------------------|
A ||-----------|-----------|---------------------|
E ||-----------|-----------|---------------------|

Veer Zaara
......Do....pal....ruka....khwaabon....ka...carvan
E |--6-----4-------------------------------------------------------------------------------
B |---------------7-6----6-4-----------6-----4-----6-------------------------------------
G |-----------------------------------------------6----------------------------------------

......Aur....phir....chal....diye.........tum..... kahan....hum....kahan
B |--4-6----7------6------4-2--------2--------4-6---------------------------------------
G |------------------------------4------------------------6-------4-3---------------------

......Do....pal....ki....thi....ye....dilon....ki. ...daastaan
E |--6-----4--------------------------------------------4----------------------------------
B |--------------7----6-----6-----6-4-----6----4----------6------------------------------
G |--------------------------------------------------6-------------------------------------

......Aur....phir....chal....diye.........tum..... kahan....hum....kahan
B |--4-6----7------6------4-2--------2--------4-6---------------------------------------
G |------------------------------4------------------------6-------4-3---------------------

......Aur....phir....chal....diye.........tum..... kahan....hum....kahan
B |--4-6----7------6------4-2--------2--------4-6--------------------4------------------
G |------------------------------4------------------------6-------4-3---------------------

STANZA :-

......Tum....the....ki....thi....koyi....ujali.... ..kiran
E |--6-------6-----4----6----6-4-----6-8-9----8-9----------------------------------------

......Tum....the....ya.....koyi....kali....muskaay i
E |--9-8-----9-----11----9-7----6------9-7-6-6-6----------------------------------------
B |----------------------------------7------------------------------------------------------

......Tum....the....ya....sapno....ka....tha...... saawan
E |--6-------6-----4-----6-6------4----6-8------9-8-9------------------------------------

......Tum.....the....ke....khushiyon...ki....ghata ....chaayi....thi
E |--9-8-----9-----11----9-7-6-------------9-7------6-6-------6-------------------------
B |-------------------------------------7---------------------------------------------------
......Tum....the....ki....tha......koyi....phool.. ..khila
E |--6-------6-----7----6-4-------------4-4------4-4------------------------------------
B |------------------------------7-6-------------------------------------------------------

......Tum....the.....ya....mila......tha....mujhe. ..naya....jahaan
B |--6-4----4-6----7----6-4-2----2-----4-6----------------6-4-6------4-----2---------
G |--------------------------------------------------6-8--------------6------4-----3-----

......Do....pal....ruka....khwaabon....ka...carvan
E |--6-----4-------------------------------------------------------------------------------
B |---------------7-6----6-4-----------6-----4-----6-------------------------------------
G |-----------------------------------------------6----------------------------------------

......Aur....phir....chal....diye.........tum..... kahan....hum....kahan
B |--4-6----7------6------4-2--------2--------4-6---------------------------------------
G |------------------------------4------------------------6-------4-3---------------------

......Do....pal....ki....thi....ye....dilon....ki. ...daastaan
E |--6-----4--------------------------------------------4----------------------------------
B |--------------7----6-----6-----6-4-----6----4----------6------------------------------
G |--------------------------------------------------6-------------------------------------

......Aur....phir....chal....diye.........tum..... kahan....hum....kahan
B |--4-6----7------6------4-2--------2--------4-6---------------------------------------
G |------------------------------4------------------------6-------4-3---------------------

......Aur....phir....chal....diye.........tum..... kahan....hum....kahan
B |--4-6----7------6------4-2--------2--------4-6--------------------4------------------
G |------------------------------4------------------------6-------4-3---------------------

JAN MAN GAN


|-------------------------------|-------------------
b|-------------------------------|-------------------
g|---0-2-2-2-2-2-2-2-2-2-2-0-2-3-|-2-2-2-0-0-0---0---
D|-3-----------------------------|-------------2---3-
A|-------------------------------|-------------------
E|-------------------------------|-------------------

e|-----------------------------|----------------------
b|---1-1-1-1-1-1-1-1-1-1-0-3-1-|----------------------
g|-----------------------------|-3-3-3-3-3-3-2-0-3-2--
D|-3---------------------------|----------------------
A|-----------------------------|----------------------
E|-----------------------------|----------------------

e|-------------------------|---------------------
b|-------------1-1-1-------|---------------------
g|-2-2-2-2-2-0-------3-3-3-|-2-2-2-0-0-0-0---0---
D|-------------------------|---------------2---3-
A|-------------------------|---------------------
E|-------------------------|---------------------

e|-----------------------|-----------------------
b|-----------------------|-----1-1-1-1-1---------
g|---0-2-2-2-2-2-3-0-2-3-|-2-3-----------3-0-3-2-
D|-3---------------------|-----------------------
A|-----------------------|-----------------------
E|-----------------------|-----------------------

e|-------------------
b|-------------------
g|-2-2-0-0-0-0---0---
D|-------------2---3-
A|-------------------
E|-------------------

e|-------------------------------|-------------------
b|-1-1-1-1-1-1-1-1-1-1-1-1-0-3-1-|-------------------
g|-------------------------------|-3-3-3-3-3-2-0-3-2-
D|-------------------------------|-------------------
A|-------------------------------|-------------------
E|-------------------------------|-------------------

e|-1-0-1---0---0-----------------------------
b|-----------3-----3-1-3---------------------
g|-----------------------------0-0-2-2-0-2-3-
D|-------------------------3-3---------------
A|-------------------------------------------
E|-------------------------------------------

MAIN HOON NA

|------------5\3----------------------------------------------------||
|------5--6-----6----3-3----3-3-------3---3-3------3--5-------------||
|-----------------------------------5------------5------------------||
|-------------------------------------------------------------------||
|-------------------------------------------------------------------||
|-------------------------------------------------------------------||
kiska hai yeh tumko intezaar main hoon na

|------------5---3--------------------------------------------------||
|------5--6-------6----3-3----3-3------3---3-3-----3--5-------------||
|-----------------------------------5------------5------------------||
|-------------------------------------------------------------------||
|-------------------------------------------------------------------||
|-------------------------------------------------------------------||
dekhlo idhar to ek baar main hoon na

|------------5-5-4-5---5-5-4-5------5/7-----------------------------||
|------5--6-----------------------------5---------------------------||
|-------------------------------------------------------------------||
|-------------------------------------------------------------------||
|-------------------------------------------------------------------||
|-------------------------------------------------------------------||
khamosh kyu ho jo bhi kehna hai kaho

|------------5-5-4-5---5-5-4-5------5/7-----------7/8---------------||
|------5--6-----------------------------5---------------------------||
|-------------------------------------------------------------------||
|-------------------------------------------------------------------||
|-------------------------------------------------------------------||
|-------------------------------------------------------------------||

dil chahe jitna pyar utna maanglo ..ho..

|-----8-8---7----5--3----2-2-----2-2-----2--------3---5---7---------||
|-------------------------------------2----------------------5------||
|-------------------------------------------------------------------||
|-------------------------------------------------------------------||
|-------------------------------------------------------------------||
|-------------------------------------------------------------------||
tumko milega utna pyar main hoon na

OM shanti OM
(aankhon mein teri, ajab si ajab si adaayein hai – 2

E----------------------------------------------------------------
B----------------------------------------------------------------
G--------------------------------5------------------------------
D-6-----6------6---------6-8------8-6-5-----------------------
A----6------6------6-6---------------------8-8-6-6------------
E----------------------------------------------------------------

dil ko banade jo patang saansein yeh teri woh haawaaein hai) - 2


E---------------------------------------------------------------
B---------------------------------------------------------------
G---------------------------------------8------------------------
D------------6-6-8-6/8--8-8-8-6-6-------8-6-8-6-6----------
A-4-4-6-6------------------------------------------------------
E---------------------------------------------------------------
aai aisi raat hai jo bhahut khushnaseeb hai

E---------------------------------------------------------------
B---------------------------------------------------------------
G---------------------------------------------------------------
D--8^--8^----------------8---------------8--8--8---6--6--------
A-------------11-11-8-8-----4---6---------------------------------
E---------------------------------------------------------------

chahe jise door se duniya, woh mere kareeb hai


E---------------------------------------------------------------
B---------------------------------------------------------------
G---------------------------------------------------------------
D--8^--8^----------------8---------------8--8--8---6--6--------
A-------------11-11-8-8-----4---6---------------------------------
E---------------------------------------------------------------

kitna kuch kehna hai phir bhi hai dil mein saawal kahin
E----------------------------------------------------------------------------
B-----------------------------------------------------------------------------
G-----------8-12-12-10-10-8-10-10--8-10-10-8-------10---8---8-------
D-10--10----------------------------------------------8-------------------
A-----------------------------------------------------------------------------
E-----------------------------------------------------------------------------

Tu hi meri shab hai - Gangster

Initial flute part:

G--9----10-9-7-5---5-4---------4-5-4--------4------
D----------------------7-5--7----------5--7----5---
A------------------------------------------------7-

G--9----10-9-7-5---5-4--------4-5-7--4------
D----------------------7-5--7----------5-7--
A-------------------------------------------

Starting paragraph:

E---------------------------------------------------
B---------------------------------------------------
G----4--4-3----4--------------------4--4-3----------
D-7----------7----5-----5----7---7----------7---5-7-
A---------------------7-----------------------------
tu hi meri shab hai subha hai tu hi din hai mera
tu hi mera rab hai jahaan hai tu hi meri du niya

E---------------------------------------------------
B---------------------------------------------------
G-9--9-9--10/9/7--9/12--14/12/10---9----9----10/9-9/7/9-
D-------------------------------------------------------
A-------------------------------------------------------
tu waqt mere liye eh eh eh main hoon tera lamha
kaise rahega bhala ah ah ah hoke tu mujhse judaa

E---------------------------------------------------
B---------------------------------------------------
G-5-7-9-7-5-7--7/9--
D-------------------
A-------------------
o o o o o ho ho

E---------------------------------------------------
B---------------------------------------------------
G-5-7-9-7-5-4-------
D-------------7-----
A-------------------
ooooooo

Chords: it's quite simple, played with Am and G.

Am G
tu hi meri shab hai subha hai
G Am
tu hi din hai mera

Am G
tu hi mera rab hai jahaan hai
G Am
tu hi meri duniya

Am G G Am
tu waqt mere liye main hoon tera lamha
Am G G Am
kaise rahega bhala hoke tu mujhse judaa
Am G
o o o o ho ho
G Am
oooooo

Song : chukar meray man ko

E|--------------------------------------------------------|
B|-8----8---6--------6----------------------6-8-----------|
G|------------8--7------------5--7-7---8--------8---------|
D|-------------------------8------------------------------|
g g f d# d f, a# c d d d# f g d#
chhookar mere man ko, kiyaa toone kyaa ishaaraa

E|-6---6-6----------8-----10-10-10-10--8-10-11-11---------|
B|----------9--8--9---------------------------------------|
G|--------------------------------------------------------|
a# a# a# g# g g# c d d d d c d d# d#
badalaa ye mausam lage pyaaraa jag saaraa

chhookar mere man ko, kiyaa toone kyaa ishaaraa

E|-------------------------------6--6--8-8-6-8--11---10-8-|
B|-8---9--9--8--------8--------8--------------------------|
G|-------------8------------------------------------------|
D|----------------8---------------------------------------|
g g# g# g d# a# g g a# a# c c a# c d# d c
too jo kahe jeewan bhar, tere liye main gaaoo
geet tere bolon pe, likhataa chalaa jaaoo

E|--6--8-9--8---------6-----------------------------------|
B|------------9--8-9--------------------------------------|
G|--------------------------------------------------------|
a# c c# c g# g g# a#
tere liye main gaaoo
likhataa chalaa jaaoo

E|-6--6--6-----------8-----10-10-10-10---8-10-11-11-------|
B|----------9---8-9---------------------------------------|
G|--------------------------------------------------------|
D|--------------------------------------------------------|
a# a# a# g# g g# c d d d d c d d# d#
mere geeton me, tuze dhoondhe jag saaraa

Song : Ek Hasina Thi


E |-----------------------------------------------------------------------------------------|
B |---4--3-----3---------3----------------------------------------------------3--4---6--4---|
G |---------5-----4---------5--4--5---------------------------------5---4--5----------------|
D |----------------------------------6------------------6---8--5---------------------------|
A |-----------------------------------------6---8-5-----------------------------------------|
E |-----------------------------------------------------------------------------------------|

Ek ha si na thi....Ek di wa na tha....kya u mar...kya sa ma...kya ja ma na tha aa


aa

E |-----------------------------------------------------------------------------------------|
B |---4--3-----3---------3----------------------------------------------------3--4---6--4---|
G |---------5-----4---------5--4--5---------------------------------5---4--5----------------|
D |----------------------------------6------------------6---8--5---------------------------|
A |-----------------------------------------6---8-5-----------------------------------------|
E |-----------------------------------------------------------------------------------------|

Ek ha si na thi....Ek di wa na tha....kya u mar...kya sa ma...kya ja ma na tha aa


aa

E |-----------------------------------------------------------------------------------------------|
B |-----------------------------------------------------------------------------------------------|
G |---------s-------------------s----------------------s-----------4----------------s-------------|
D |---5-5--6/8-8--6-6-----3-3--5/6-6--5-5-----5----5--6/8-8---6-6-----6-----3---3--5/6-
6---5-5----|
A |-----------------------------------------------------------------------------------------------|
E |-----------------------------------------------------------------------------------------------|

e k din o mili....log mil ne lage....phir mo hab bat huyi ee ee....bas ka ya mat huyi

E |-----------------------------------------------------------------------------------------|
B |-------------3---3--4---------------3-3--4--------------3-3--4-----------------3-3--4----|
G |---5---4--5---------------5---4--5-------------5-4--5---------------5----4--5------------|
D |-----------------------------------------------------------------------------------------|
A |-----------------------------------------------------------------------------------------|
E |-----------------------------------------------------------------------------------------|

kho ga ye tum ka ha....sun ke ye das ta....log hai ran hai....kyun ki an jan hai
E |-----------------------------------------------------------------------------------------|
B |---4----3--------------------------------------------------------------------------------|
G |-----------5---3-------------8----5-3----------------------------------------------------|
D |-------------------5--6--6-8-----------6---6/8--3--5-------------------------------------|
A |-----------------------------------------------------------------------------------------|
E |-----------------------------------------------------------------------------------------|

ishq ki hai woh ga li e e e....hat jis ki chali

E |-----------------------------------------------------------------------------------------|
B |---3-----3--4----3-----3--4----3-----3--4---------------3---------3---s------------------|
G |------5-------------5-------------5--------5---5--2--5-----4---5-----5/7-5--5------------|
D |-----------------------------------------------------------------------------------------|
A |-----------------------------------------------------------------------------------------|
E |-----------------------------------------------------------------------------------------|

us gali mein me ra aa na...j a a na tha ek ha si na thi ek di wa na tha

E |-----------------------------------------------------------------------------------------|
B |---3-----3---4---3------3--4---3------3--4---------------3---------3---s-----------------|
G |-------5-------------5-------------5--------5---5--2--5-----4---5-----5/7-5--5-----------|
D |-----------------------------------------------------------------------------------------|
A |-----------------------------------------------------------------------------------------|
E |-----------------------------------------------------------------------------------------|

kya u mar thi kya sa ma tha kya ja ma na tha ek ha si na thi ek di wa na tha

E |-----------------------------------------------------------------------------------------|
B |-----------------------------------------------------------------------------------------|
G |----------p--------------------p--------------------p------------------------------------|
D |---5--5--6/5--3-----3---5--5--6/5--3-----3---5--5--6/5--3-----3--------------------------|
A |-----------------6--------------------6--------------------6-----------------------------|
E |-----------------------------------------------------------------------------------------|

us ha seen ne ka ha..us ha seen ne ka ha..su no ja ne wa fa

E |------------------------------------------------------|
B |------------------------------------------------------|
G |----------p-------------------------------------------|
D |---5--5--6/5--3------3---5--5--6---3-------3----------|
A |------------------6---------------------6-------------|
E |------------------------------------------------------|

ke pa lat yeh tu mi..te re bin kuch na hin

E |-------------------------------------------------------------------------------------|
B |-------------------------------------------------------------------------------------|
G |---5----4--5--------------5-4--5--------------5-4--5-------------5---4--5------------|
D |---------------6--5--5-------------6--5--5--------------6-5--5--------------6-5--5---|
A |-------------------------------------------------------------------------------------|
E |-------------------------------------------------------------------------------------|

tujh pe mar ti hu mein pyar kar ti hu main baat kuch aur thi woh na zar tor di

E |--------------------------------------------------------|
B |---4--3-------------------------------------------------|
G |---------5---3-------------8--5--3------s---------------|
D |----------------5---6--6-8----------6--6/8--3--5--------|
A |--------------------------------------------------------|
E |--------------------------------------------------------|

us ke dil me chu pi e e e **** ****** ki si (cudn't make out the words)

E |-----------------------------------------------------------------------------------------|
B |---3-----3--4--3-----3--4----3-----3--4---------------3---------3---s--------------------|
G |------5----------5--------------5--------5---5--2--5-----4---5-----5/7-5--5--------------|
D |-----------------------------------------------------------------------------------------|
A |-----------------------------------------------------------------------------------------|
E |-----------------------------------------------------------------------------------------|

pyaar ka a o pha saak ek ba ha na tha ek ha si na thi ek di wa na tha

E |----------------------------------------------p------------------p-----------|
B |---------------------------------------4--4--4/3-3-----3--4--4--4/3-3-----3--|
G |---------------------------h------------------------5------------------5-----|
D |------------0----1--5--3--3/5------------------------------------------------------|
A |---3--2--3--------------------6--5--6------------------------------------------|

be wa fa yaar ne ap ne mah boob se ai sa dho ka ki ya ai sa dho ka ki ya

E |----------p------------------p--------------|
B |---4--4--4/3-3-----3--4--4--4/3-3-----3-----|
G |----------------5------------------5--------|
D |--------------------------------------------|
A |--------------------------------------------|
E |--------------------------------------------|

jahar uskoo di ya jahar uskoo di ya

E |------------------------------------------------------------------------------|
B |---3---3--4---3---3--4---3---3--4----------------3----------3---s-------------|
G |-----5----------5----------5------5---5--5--2--5---4---4--5----5/7--5---------|
D |------------------------------------------------------------------------------|
A |------------------------------------------------------------------------------|
E |------------------------------------------------------------------------------|

Kaho na Kaho(tabs) - Murder

Intro....
e-----------------------------------------
B-----------------------------------------
G----------------------------------------
D--5-7-8-7--7-7-7----5-7-8-7--7-7-7----
A----------------------------------------
E----------------------------------------

e-----------------------------------------
B-----------------------------------------
G------5----------------------------------
D--5-7--8-8-8-8-8----5-7-8-7------------
A----------------------------------------
E----------------------------------------

Song starts
e------------------------------------------------
B------------------------------------------------
G--5-5-4----5----5-5-5----5-5-5-5----5-5-5-4---5-4-
D---------7------------------------------------7-----
A-------------------------------------------------
E-------------------------------------------------
Kaho na kaho, yeh aanken, bolti hai, oh sanam oh sanammm

e----------------------------------------
B---------------------------------------
G--5-5-4----5-4-------------------------
D---------7------------------------------
A---------------------------------------
E----------------------------------------
oh mere sanammmm

e----------------------------------------
B---------------------------------------
G--4-4-4---4-4-4-4---4-4------4---------
D--------------------------7-6------------
A---------------------------------------
E----------------------------------------
mohabbat, ke safar mein, tu hamara hain

e----------------------------------------
B---------------------------------------
G--4-4-4----4-4-4-4--4-4----------------
D--------------------------7-6-7-----------
A---------------------------------------
E----------------------------------------
ghaneri, sahilo ka, tu kinar hai (not sure about the lyrics over here)

e----------------------------------------
B---------------------------------------
G----2-2-2-2-2---2-2-2-4-2------------- (play this part fast)
D--2-------------------------------------
A---------------------------------------
E----------------------------------------
Baadalo se unchi, udaan unki
sabse alag, pechcaan unki

e----------------------------------------
B---------------------------------------
G--4-4-4--4-4-4-2-4-4-2-0--------------
D---------------------------------------
A---------------------------------------
E----------------------------------------
unko hai, pyar ki kahaani manjoor

e----------------------------------------
B---------------------------------------
G--4-4-4-4-5-4-2-2-2-2----------------
D---------------------------------------
A---------------------------------------
E----------------------------------------
aate jaate sabaki rawani manjoor

EK LADKI BHEEGI BHAGI SI

......Ek.......ladki...........bheegi............. bhaagi....si

E |----------------------------------------------------------------------
B |--5-7----8-7-8--------7------5----------5-5-------5---------------
G |-----------------9---------7-----4----------------------------------

......Soti...........raaton............mein....... jaagi....si

E |----------------------------------------------------------------------
B |--5-7-8-7----8-----7---------5-----------5-5-----5----------------
G |-----------------9-----7---------4----------------------------------

......Mili.....ek.....ajnabi....se
E |--3-5----7-----7-8-7----7-----------------------------------------
E |----------------------------------------------------------------------

......Koi......aage......na......peeche

E |----------------------------------------------------------------------
B |--7-8----10-10----12----10-10-----------------------------------

......Tum....hi.....kaho
E |----------------------------------------------------------------------
B |--8-7----8--------7-----------------------------------------------
G |---------------9---------------------------------------------------

......Ye......koi......baat....hai....hoon
E |----------------------------------------------------------------------
B |---------5-------5-5-----5-----Em CHORD----------------------
G |--7--------4-------------------------------------------------------

STANZA :-

......Dil......hi.....dil......mein....jali....... jaati....hai
E |-----------------------------------------8-7-----7-----------------
B |--5-7----8----7-5----7-------8-10--------------------------------

......Bigdi..........bigdi..........chali......... aati........hai
E |----------------------------------------------------------------------
B |--------------------------------10-------13-12----12------------
G |--9-11-12----11-9-11----12------------------------------------

......Jhunjhalaati.........hui...........balkhaati ..........hui
E |----------12-10----------12-----10--------------------------------
B |--12-13-------------13--------------13-12-10----------12--------
G |------------------------------------------------------12------------

......Saawan......ki.......bheegi.....raat....mein
E |----------------------------------------------------------------------
B |--12-12-------13----12-10-----8-7-----5--------------------------

Title: aage bhi jaane na tuuu


Artist: Asha Bhosle
Album: Vaqt
Tuning: Standard (E A D G B E)

Hi frnds Now with whole para...is nice a Slow track Enjoy it!

E|---------------------3------------------------------------------||
B|--1-----3\5---3-----5-------5--------3b----------------------||
G|--------------------------------5-------------------------------||
D|----------------------------------------------------------------||
Intro a
E|--------------------------------0------------------------------||
B|------------------3------1----3-------1------1-----------------||
G|-----0-----1-----------------------------2---------------------||
D|---------- -----------------------------------------------------||
Intro b 2 Times

E|---0-3-------5\8---------7-8-7--------3---------5----------||
B|---------------------------------------------------------------||
G|---------------------------------------------------------------||
D|---------------------------------------------------------------||
Aage Bbi jaane naa tu,

E|----0--3-5-----3-5-3---------------------------------------||
B|---------------------5--3-----5---4---3---------------------||
G|----------------------------5---------------------------------||
D|--------------------------------------------------------------||
A|--------------------------------------------------------------||
E|---------------------------------------------------------------||
piche Bhi jaane naa tu

E|---------3----0-3--0------------------------------------------||
B|--1---3---------------3----1-------3----1--------------------||
G|-------------------------------2-------------------------------||
D|---------------------------------------------------------------||
jo Bhi hai bas yehi ek pal hai

Repeat Intros 2 Times

E|-------------------------------------------------------------||
B|-3\5--5-5---3h5----1-1----------------------------------||
G|------------------------0-----------------------------------||
D|-------------------------------------------------------------||
Anjaani saayo ka,
Raho mein Dera hai,

E|----------------5-5----5--8----5--8-5--5/3-3-3-----------||
B|-3\5--5-5-5--6---------------------------------------------||
G|---------------------------------------------------------------||
D|---------------------------------------------------------------||
Anadekhi baaho neeeee, hum sab ko Ghera hai

E|-------------------------------------------------------------||
B|-3\5--5-5---3h5----1-1----------------------------------||
G|------------------------0-----------------------------------||
D|-------------------------------------------------------------||
yeh pal ujaalaa hai,
baakI Andhera hai,

E|----------------5-5----5--8----5--8-5--5/3-3-3---------||
B|-3\5--5-5-5--6-------------------------------------------||
G|------------------------------------------------------------||
D|------------------------------------------------------------||
yeh pal gavaanaa naaaaa, yeh pal hi tera hai

E|---3\8--8-8--8-10--8------5-5---5-3-3\5-------------||
B|-----------------------------------------------------------||
G|----------------------------------------------------------||
D|----------------------------------------------------------||
jene wale soch lo,

E|----7\8---3-5---3-------------------3----------------||
B|--------------------5-----------3-5---5---------------||
G|---------------------------------------------------------||
yehi vaqt hai kar lo,

E|---------------------------------------------------------||
B|-------3\5/1-3-----1----------------------------------||
G|---------------2-----------------------------------------||
D|---------------------------------------------------------||
puri Arjzoo

kabhi alvida na kehna

Tum ko bhi hai khabar Mujhko bhi hai pata


|----------------------------------------------------------------------------
|----------------------------------------------------------------------------
|-0-3-2-0-3-2------------2-0--------------------------------------------------------
|----------------------3------2-2-3----------------------------------------------

Ho raha hai judaa Dono ka raasta


|----------------------------------------------------------------------------
|----------------------------------------------------------------------------
|-0-3-2-0-3-2------------2-0---------------------------------------------------------
|----------------------3------2-2-3----------------------------------------------
Dur jaake bhi mujhse tum meri yaadon main rehna
|----------------------------------------------------------------------------
|-3-3-1-1------------3-3-1-1---------------------------------------------------------
|---------0-2-3--------------0-3-2--0-0-2-0--------------------------------------------
|--------------------------------------------3--------------------------------

Kabhi alvida na kehna


|----------------------------------------------------------------------------
|------1-1-1--------------------------------------------------------------------
|---0--------2-0----------------------------------------------------------------
|-3---------------3--p5----------------------------------------------------------

Kabhi alvida na kehna


|----------------------------------------------------------------------------
|------1-1-1--------------------------------------------------------------------
|---0--------2-0----------------------------------------------------------------
|-3---------------3--p5----------------------------------------------------------

Kabhi alvida na kehna


|----------------------------------------------------------------------------
|------1-1-1--------------------------------------------------------------------
|---0--------2-0----------------------------------------------------------------
|-3---------------3--p5-3---------------------------------------------------------

Tum ko bhi hai khabar Mujhko bhi hai pata


Ho raha hai judaa Dono ka raasta
Dur jaake bhi mujhse tum meri yaadon main rehna
Kabhi alvida na kehna
Kabhi alvida na kehna

Stanza 1

Jitni thi khushiyaa Sab kho chuki hai


|----------------------------------------------------------------------------
|----------------------------------------------------------------------------
|-2-3-2-0-2---------2-3-2-0-2----------------------------------------------------------
|----------------------------------------------------------------------------

Bas ek gham hai ki jaata nahi


|----------------------------------------------------------------------------
|----------------------------------------------------------------------------
|-2-3-5--7-h5-h7-7-7----2-h3-p5--5-5-
5--------------------------------------------------------------
|----------------------------------------------------------------------------
Samjha ke dekha behla ke dekha
|----------------------------------------------------------------------------
|----------------------------------------------------------------------------
|-2-3-2-0-2---------2-3-2-0-2----------------------------------------------------------
|----------------------------------------------------------------------------

Dil hai ki chain isko aata nahi


|----------------------------------------------------------------------------
|----------------------------------------------------------------------------
|-2-3-5--7-h5-h7-7-7----2-h3-p5--5-5-
5--------------------------------------------------------------
|----------------------------------------------------------------------------

Aasoon hai ki hai angarai


|----------------------------------------------------------------------------
|-3-3-1-1------------3-3-1-1---------------------------------------------------------
|---------0-2-2-3--------------0-3-2--0-0-2-0--------------------------------------------
|--------------------------------------------3--------------------------------

Neele Neele Ambar per - Safed Jhooth

E---------------------------------------------------------------------------
B---------------------------------------------------------------------------
G------2-------3--2--3--2--3--2--3--2-------0-2-0----0---------------0------
D--0-----------------------------------------------3----3--2--0------2------
A----------------------------------------------------------------0---0------
E---------------------------------------------------------------------------

E------1---5--3----3--5-3-------------------3----1-3-1----------------------
B--3-----------------------5--------------5------------3--------------------
G------------------------------------5--------------------------------------
D---------------------------------------------------------------------------
A---------------------------------------------------------------------------
E---------------------------------------------------------------------------
neele neele ambar par, chaand jab aaye

E------1---5--3--------------------3---1------------------------------------
B--3--------------5------------5-----------3--------------------------------
G-------------------------5-------------------------------------------------
D---------------------------------------------------------------------------
A---------------------------------------------------------------------------
E---------------------------------------------------------------------------
pyaar barasaae, hamako tarasaaye

E----------------1----10---10-10------10--------10----8---8--8-8-8----------
B---3------3------------------------------10--------------------------------
G------2--------------------------------------------------------------------
D---------------------------------------------------------------------------
A---------------------------------------------------------------------------
E---------------------------------------------------------------------------
aisaa koii saathii ho aisaa koii premii ho

E------5--8---6---6---6--8-6-5----------------------------------------------
B--6------------------------------------------------------------------------
pyaas dil kii bujhaa jaae

E------1---5--3----3--5-3-------------------3-------------------------------
B--3-----------------------5--------------5------5-6-8-6--------------------
G------------------------------------5-------------------7------------------
D---------------------------------------------------------------------------
neele neele ambar par, chaand jab a.aye

E---------5--3--------------------3-----------------------------------------
B-----5-----------5------------5-----5-6/8----------------------------------
G--7-----------------------5----------------7-------------------------------
D---------------------------------------------------------------------------
pyaar barasaae, hamako tarasaaye

E------------5---10--10-10-10------------------10---8---8--8-8-8------------
B------------------------------------------10-------------------------------
G--7-----7------------------------------10----------------------------------
D------7--------------------------------------------------------------------
A---------------------------------------------------------------------------
E---------------------------------------------------------------------------
aisaa koI saathii ho aisaa koI premii ho

E------5--8---6---6---6--8-6-5----------------------------------------------
B--6------------------------------------------------------------------------
G---------------------------------------------------------------------------
pyaas dil kii bujhaa jaae

E---------------------------------------------------------------------------
B---------------------------------------------------------------------------
D--2-4----5---7--8-8/9--9-9-9---9-9-h11-----9------9--11-11-11/12-12-12-12--
A----------------------------------------13-----10--------------------------
E---------------------------------------------------------------------------

E--------------------------------------------------5-5-5-5---3-3-3-3---1-1-1-1
B----------------------7--h9-h9-h9----5-h7-h7-h7---6-6-6-6---5-5-5-5---3-3-3-3
G---7-7-h9------9-7-9--------------7---------------7--------------------------
D-----------11----------------------------------------------------------------
A-----------------------------------------------------------------------------
E-----------------------------------------------------------------------------

E---------------------------------------------------------------------------
B------1--------------------------------------------------------------------
G--2-3---3-2-0---0-2-0------------------------------------------------------
D--------------3-------3-0--------------------------------------------------
A---------------------------------------------------------------------------
E---------------------------------------------------------------------------

E--10--10--10---10--10--10--10---------10--12--10---8----------------8------
B-------------------------------------------------------10----10-10---------
G---------------------------------------------------------10----------------
D---------------------------------------------------------------------------
A---------------------------------------------------------------------------
E---------------------------------------------------------------------------
ho, uunche uunche parvat jab chuumate hai ambar ko

E--6---6---6----6--6--6---------6---8----------------------8----------------
B---------------------------------------9----------9-9-9--------------------
G------------------------------------------10-10----------------------------
D---------------------------------------------------------------------------
A---------------------------------------------------------------------------
E---------------------------------------------------------------------------
pyaasaa pyaasaa ambar jab chuumataa hai saagar ko

E---------------------------------------------------------------------------
B--------10--8-8-10-8--------------------8----6-6--8-6----------------------
G-----10---------------999------------9-----------------7-7-7---------------
D--12----------------------------10-----------------------------------------
A---------------------------------------------------------------------------
E---------------------------------------------------------------------------
pyaar se kasane ko baaho.n me.n basane ko
E---------------------------------------------------------------------------
B----------10--8-10--8-------------------8--6--8-6--------------------------
G-----10---------------9--------------9------------7------------------------
A---------------------------------------------------------------------------
D--12------------------------------10---------------------------------------
E---------------------------------------------------------------------------
dil meraa lalachaaye koI to aa jaaye

E------------5---10--10-10-10------------------10---8---8--8-8-8------------
B------------------------------------------10-------------------------------
G--7-----7------------------------------10----------------------------------
D------7--------------------------------------------------------------------
A---------------------------------------------------------------------------
E---------------------------------------------------------------------------
aisaa koI saathii ho aisaa koI premii ho

E------5--8---6---6---6--8-6-5----------------------------------------------
B--6------------------------------------------------------------------------
E---------------------------------------------------------------------------
A---------------------------------------------------------------------------
pyaas dil kii bujhaa jaae

Neele Neele ambar per


SAME AS ABOVE

The MUSIC IN BETWEEN

E---------------------------------------------------------------------------
B---------------------------------------------------------------------------
G---2--2--2---2-2-2-2-2-2-2-2-2-2-2-2-2-2-h3-h4-h5-2------------------------
D---0--2--0------------------------------------------2-h3-h4-h5-2-----------
A---------------------------------------------------------------------------
E---------------------------------------------------------------------------

E-------------------------------------------------------------------0-------
B------1-1-3-1----1-------------------------------------------------0-------
G--2-3----------3---3--2--3--2--0--2--0-----0-----------------------0-------
D----------------------------------------3-----3--2--3--2--0--2--0--2-------
A-------------------------------------------------------------------0-------
E---------------------------------------------------------------------------
ZARA ZARA(RHTDM)

Music
-3-3-3-----------------------------------------------
-------6-4--3-3-3--3-4-6--4--------------------------
----------------------------5------------------------
-----------------------------------------------------
-----------------------------------------------------
-----------------------------------------------------

---------------3~--6~--8/10~--8\6-4-3---4-3---3-4-----------
---4~--4-6~--6------------------------------6-------4-3-----
-5----------------------------------------------------------
------------------------------------------------------------
------------------------------------------------------------
------------------------------------------------------------

Zara zara bahekta hai, mahekta hai


-----------------------------------------------------
-3-4--3-4--4-3-4-6--3-4--4-3-4-6--3-4----------------
-----------------------------------------------------
-----------------------------------------------------
-----------------------------------------------------
-----------------------------------------------------

Aaj to mera tan badan, main pyaasi hoon


-------3---------------------------------------------
-3-3-6---4-3--4-3-4--4-3-4-6--3-4--------------------
-----------------------------------------------------
-----------------------------------------------------
-----------------------------------------------------
-----------------------------------------------------

Mujhe bhar le apni baahon mein


-----------------------------------------------------
-4-3-4-6--3-4----4-3----3----------------------------
---------------5------5---3--------------------------
-----------------------------------------------------
-----------------------------------------------------
-----------------------------------------------------

Hai meri kasam tujhko sanam, door kahin na jaa


-----------------------------------------------------
------4-3-----3---------------3-3--------------------
-5--5----3--3---5------5-3--------5-5----------------
------------------6--6-----5-------------------------
-----------------------------------------------------
-----------------------------------------------------

Yeh doori kehti hai paas mere aaja re


-----------------------------------------------------
------4-3-----3---------------3-3--------------------
-5--5----3--3---5------5-3--------5-5----------------
------------------6--6-----5-------------------------
-----------------------------------------------------
-----------------------------------------------------

Yunhi baras baras kaali ghata barse


--------3----3---3---3-------------------------------
---4--6----6---6---6----4-3--------------------------
-5---------------------------------------------------
-----------------------------------------------------
-----------------------------------------------------
-----------------------------------------------------

Hum yaar bheeg jaaye is chaahat ki baarish mein


-------------------------------------3-4----3--------
---4-4--4-6--3-4-------6--6-6-6--3-6------6----------
-5---------------5---5-------------------------------
-----------------------------------------------------
-----------------------------------------------------
-----------------------------------------------------

Meri khuli khuli laton ko suljhaaye


--------3----3--8-8---3---3--------------------------
---4--6----6--------6---6----4-3---------------------
-5---------------------------------------------------
-----------------------------------------------------
-----------------------------------------------------
-----------------------------------------------------

Tu apni ungliyon se main to hoon isi khwaahish mein


-------------------------------------3-4----3--------
---4-4--4-6--3-4-------6--6-6-6--3-6------6----------
-5---------------5---5-------------------------------
-----------------------------------------------------
-----------------------------------------------------
-----------------------------------------------------
Sardi ki raaton mein hum soye rahe ek chaadar mein
---8-8------10-10------11-11--11-10-8--------8-8-----
-8-----8--8-------8--8-----------------11-11---------
-----------------------------------------------------
-----------------------------------------------------
-----------------------------------------------------
-----------------------------------------------------

Hum dono tanha ho, na koi bhi rahe is ghar mein


---8-8------6-6------4-3-----------------------------
-8-----8--8-----6--6-----6-4--3-3-4-3----------------
-----------------------------------------------------
-----------------------------------------------------
-----------------------------------------------------
-----------------------------------------------------

Zara zara bahekta hai, mahekta hai


Aaj to mera tan badan, main pyaasi hoon
Mujhe bhar le apni baahon mein
Aaja re aa re
Tadpaaye mujhe teri sabhi baatein
Ek baar ae deewane jhootha hi sahi pyaar to kar
Main bhooli nahin haseen mulaaqaatein
Bechain karke mujhko mujhse yun na pher nazar
Roothega na mujhse, mere saathiya yeh vaada kar
Tere bina mushkil hai jeena mera mere dil mein
(Zara zara bahekta hai, mahekta hai
Aaj to mera tan badan, main pyaasi hoon
Mujhe bhar le apni baahon mein
Hai meri kasam tujhko sanam, door kahin na jaa
Yeh doori kehti hai paas mere aaja re
Aaja re, aaja re, aaja re

Jub koi baat biger jaye - Full

E --------------------------------------
B -----9----9------9--------------------
G -9-9--------11-9----------------------
D --------------------------------------
A --------------------------------------
E --------------------------------------
jub koi baat, biger jaye ae
E --------------------------------------
B ---------9----------------------------
G -11-9-11---11-9-----------------------
D ----------------11--------------------
A --------------------------------------
E --------------------------------------
jub koi muskil per jaye

E --------------------------------------
B ---------9----------------------------
G ----9-11---11-9-----------------------
D -11-------------11-11-9---------------
A --------------------------------------
E --------------------------------------
tum dena na sath mera

E --------------------------------------
B --------------------------------------
G -----9----9---------------------------
D -9-11--11-----------------------------
A --------------------------------------
E --------------------------------------
o hum nawazzz

E --------------------------------------
B -----9----9------9--------------------
G -9-9--------11-9----------------------
D --------------------------------------
A --------------------------------------
E --------------------------------------
na koi hai,na koi tha

E --------------------------------------
B ---------9----------------------------
G -11-9-11---11-9-----------------------
D ----------------11--------------------
A --------------------------------------
E --------------------------------------
zindagi mein tumhare siwa

E --------------------------------------
B ---------9----------------------------
G ----9-11---11-9-----------------------
D -11-------------11-11-9---------------
A --------------------------------------
E --------------------------------------
tum dena sath mera

E --------------------------------------
B --------------------------------------
G -----9----9---------------------------
D -9-11--11-----------------------------
A --------------------------------------
E --------------------------------------

o hum nawaz

E --------------------------------------
B -12-11-12---12-11-12--12-11-12--------
G --------------------------------------
D --------------------------------------
A --------------------------------------
E --------------------------------------
hai jand.ni,jub tak rat

E --------------------------------------
B -12-12-12-12/14-12--10-10-------------
G --------------------------------------
D --------------------------------------
A --------------------------------------
E --------------------------------------
deta hai her koi sath
E --------------------------------------------
B -10/14-14-14---14-14-15-14------------------
G ---------------------------13-13-11-11-13-11
D --------------------------------------------
A --------------------------------------------
E --------------------------------------------
tum mager undheroun mine na chorna mera sath

aggey get the lyrics i dun remem lol

E --------------------------------------
B -----9----9------9--------------------
G -9-9--------11-9----------------------
D --------------------------------------
A --------------------------------------
E --------------------------------------

e --------------------------------------
B ---------9----------------------------
G -11-9-11---11-9-----------------------
D ----------------11--------------------
A --------------------------------------
E --------------------------------------

E --------------------------------------
B ---------9----------------------------
G ----9-11---11-9-----------------------
D -11-------------11-11-9---------------
A --------------------------------------
E --------------------------------------

E --------------------------------------
B --------------------------------------
G -----9----9---------------------------
D -9-11--11-----------------------------
Ankhen Kholi Ho ya Ho Band - Mohabbatein
E----------------------------------------
B----------------------------------------
G------------6-6------------------------
D-4--7--6-7-------4-4----------------
A----------------------------------------
E----------------------------------------
Ankhen Khuli...

E----------------------------------------
B----------------------------------------
G----------------------------------------
D-4--6--4--7--6----4--6--------------
A---------------7------------------------
E----------------------------------------
Dedar...

E----------------------------------------
B----------------------------------------
G----4--4--6-4------------------------
D-6------------7-7-7-7----------------
A----------------------------------------
E----------------------------------------
Kaise...

E----------------------------------------
B----------------------------------------
G----------------------------------------
D-6-----6--4-4-4----------------------
A----7-----------------------------------
E----------------------------------------
Yeh Pyar...

Interlude:-(play it fast)
E----------------------------------------
B----------------------------------------
G---------1-2-4--1-2-1---------------
D-4-4-2-4--------------2-4-----------
A----------------------------------------
E----------------------------------------
Play Interlude twice.

The following part is played on voilen somewhere in the song


E-----------------------------------------------------------------------------
B-----------------------------------------------------------------------------
G-2/6--6-6-7-6-4-2---2/6--6-6-7-6-4-2---2/4--4-4-7-6--4-7-6-6-
D-----------------------------------------------------------------------------
A-----------------------------------------------------------------------------
E-----------------------------------------------------------------------------

Ghajini – Gujarish

Tu meri adhuri pyass pyass ----- Tu agayi mann ko ras ras--------------ab tooooh..

E-------0------0---3--------------------------0------0---3--------------------------
B----------3-----------0--1--0--0------------------3-----------0--1--0-0------------
G-2--2------------------------------2---0--2--------------------------------2---0h2-
D------------------------------------------------------------------------------------
A------------------------------------------------------------------------------------
E------------------------------------------------------------------------------------

Tu meri adhuri pyass pyass ----- Tu agayi mann ko ras ras---------------ab tooooh

E-------0------0---3--------------------------0------0---3---------------------------
B----------3-----------0--1--0--0------------------3-----------0--1--0-0-------------
G-2--2------------------------------2---0--2--------------------------------2---0--2-
D------------------------------------------------------------------------------------
A------------------------------------------------------------------------------------
E------------------------------------------------------------------------------------

thu aaja pass passsssss..-----hain Guzarishhhhhh...

E-0-----0---3----------------|-------------------------
B----3----------0--1--0--0---|--1--0---1----3s5--------
G----------------------------|-------------------------
D----------------------------|-------------------------
A----------------------------|-------------------------
E----------------------------|-------------------------

Hain haal to dil ka tang tang ------ thu rang ja mere rang rang------------bas chalna

E-------0------0---3--------------------------0------0---3--------------------------
B----------3-----------0--1--0--0------------------3-----------0--1--0-0------------
G-2--2------------------------------2---0--2--------------------------------2---0--2
D------------------------------------------------------------------------------------
A------------------------------------------------------------------------------------
E------------------------------------------------------------------------------------
mere sang sang---------------hain Guzarishhhhhh...

E-0-----0---3----------------|-------------------------
B----3----------0--1--0--0---|--1--0---1----3s5--------
G----------------------------|-------------------------
D----------------------------|-------------------------
A----------------------------|-------------------------
E----------------------------|-------------------------

kehde thu han tho zindagi----chainon se chhutke hasegi---moti hunge moti rahon
meinnn

E--1---0----------------0----|-0-------------------------|------------------------
B------------3----1---3---3--|----3--1--1--0--1--3---1--|-0-0-0-0-0-0-0---5--3h5-
G----------------------------|---------------------------|------------------------
D----------------------------|---------------------------|------------------------
A----------------------------|---------------------------|------------------------
E----------------------------|---------------------------|------------------------

yei yei yei yeh

E------------------------
B--5-5--3-3--1-1--0-0----
G----------------------2-
D------------------------
A------------------------
E------------------------

Tu meri adhuri pyass pyass -------- Tu agayi mann ko ras ras--------------ab tooooh

E-------0------0---3--------------------------0------0---3---------------------------
B----------3-----------0--1--0--0------------------3-----------0--1--0-0-------------
G-2--2------------------------------2---0--2--------------------------------2---0--2-
D------------------------------------------------------------------------------------
A------------------------------------------------------------------------------------
E------------------------------------------------------------------------------------

thu aaja pass passsssss..-----hain Guzarishhhhhh...

E-0-----0---3----------------|-------------------------
B----3----------0--1--0--0---|--1--0---1----3s5--------
G----------------------------|-------------------------
D----------------------------|-------------------------
A----------------------------|-------------------------
E----------------------------|-------------------------

Sheeshe ke khwaab lekke---------raaton mein chal raha hoon----takrana jao


kahinnnnnnn

E----------------------------------------------------------------|-1h3--1--0---------------
B-3--1--3--1--3--3--1--3--3s5-----3--1--3--1--3--3--1--3--3s5-|------------1------------
G----------------------------------------------------------------|---------------2--0--0h2-
D----------------------------------------------------------------|-------------------------
A----------------------------------------------------------------|-------------------------
E----------------------------------------------------------------|-------------------------

aasha ki lon hain roshan---------phir bhi toffan ka dhar hain-----lon bhuj na jaye
kahinnn

E---------------------------------------------------------------|-1h3--1--0-----------------
B-3--1--3--1--3--3--1--3--3s5----3--1--3--1--3--3--1--3--3s5-|------------1-------1h3----
G---------------------------------------------------------------|---------------2--0------2-
D---------------------------------------------------------------|---------------------------
A---------------------------------------------------------------|---------------------------
E---------------------------------------------------------------|---------------------------

bas eak haan ki guzaarish------phir hogi khusiyon ki baarish

E-------3---1h3--1--0---------|-------3---1h3--1--0---------|
B--3-3-----------------3--1---|--3-3-----------------3--1---|
G-----------------------------|-----------------------------|
D-----------------------------|-----------------------------|
A-----------------------------|-----------------------------|
E-----------------------------|-----------------------------|

Tu meri adhuri pyass pyass ------- Tu agayi mann ko ras ras------------------ab


tooooh

E-------0------0---3--------------------------0------0---3---------------------------
B----------3-----------0--1--0--0------------------3-----------0--1--0-0-------------
G-2--2------------------------------2---0--2--------------------------------2---0--2-
D------------------------------------------------------------------------------------
A------------------------------------------------------------------------------------
E------------------------------------------------------------------------------------

thu aaja pass passsssss..-----hain Guzarishhhhhh...


E-0-----0---3----------------|-------------------------
B----3----------0--1--0--0---|--1--0---1----3s5--------
G----------------------------|-------------------------
D----------------------------|-------------------------
A----------------------------|-------------------------
E----------------------------|-------------------------

chanda hain aasman hain-------aur badal bhee gane hain--------yeh chanda chup
jaye na

E--------------------------------------------------------------|-1h3--1--0---------------
B-3--1--3--1--3--3--1--3--3s5---3--1--3--1--3--3--1--3--3s5-|------------1------------
G--------------------------------------------------------------|---------------2--0--0h2-
D--------------------------------------------------------------|-------------------------
A--------------------------------------------------------------|-------------------------
E--------------------------------------------------------------|-------------------------

tanhayi das rahin hain-----------aur dhadkan bad rahi hain------eak pal bhi chain
aye na

E--------------------------------------------------------------|-1h3--1--0-----------------
B-3--1--3--1--3--3--1--3--3s5---3--1--3--1--3--3--1--3--3s5-|------------1-------1h3----
G--------------------------------------------------------------|---------------2--0------2-
D--------------------------------------------------------------|---------------------------
A--------------------------------------------------------------|---------------------------
E--------------------------------------------------------------|---------------------------

aisi aajab dastaan hain--------bheechainiyan baas yahan hainnn

E-------3---1h3--1--0---------|-------3---1h3--1--0---------|
B--3-3-----------------3--1---|--3-3-----------------3--1---|
G-----------------------------|-----------------------------|
D-----------------------------|-----------------------------|
A-----------------------------|-----------------------------|
E-----------------------------|-----------------------------|

Bakhuda tumhi ho – Kismet Connection

Bakhuda tumhi ho

E----7--5--4-----4------4
B-------------------7----
Har jagah tumhi ho..
E----7--5--4-----4------4
B-------------------7----

Haan main dekhoon jahan jab...


E-------9----9-9----7--5--7--------
B---5------------------------

Uss jagah ............tumhi ho.


E------9-9---12---11--9--7-------
B--5----------

Same above all for .....


Ye jahan tumhi ho, Wo jahan tumhi ho,
Is jamin se falak ke, darmiya tumhi ho.

Tumhi ho......... beshuba, Tumhi ho....


E--12-12--14---12-16-14---17-16-14-12--

Tumhi ho .......mujh mei haa, ..Tumhi ho.


E--12-12--14---12-16-14----17-16-14-12--