Rebel Rebel-David Bowie

That riff
D
E
|----0------------|-------------------|
|----5---3---2-0.-|0-----0-2p0--------|
|-------(2)--2-1.-|1-----------1------|
|--------------2.-|2-------------2-0-let ring
|-----------------|hold---------------|
|-----------------|-------------------|
D

E
You've got your mother
in a whirl
She's not sure if you're a boy or a girl
Hey babe
your hairs alright
Hey babe
let's go out tonight
You like
me
and
I like it all
We like dancing and
we look divine
You love bands
when they play it hard
You want more
and
you want it fast

A

D

Bm

They put you down
put them on

they

D

E
you've torn you're dress
you're face is a mess
how could they know?

Rebel
Rebel
Rebel

Rebel
Rebel
Rebel

D (Hold chord)
riff)
Hot tramp

say I'm wrong

E (hold chord open D note & back to
I

love you so

The Riff
e
B
G
D
A
E

D9
E
-----------O--------(O)------------------I
------(3)-----3--2---O-O-----2--O--------I
------(2)------------1-1-----------1-----I
-------O------------(2)---2-----------2--I
-----------------------------------------I
--(3)------------------------------------I

Bridge
A
D
Bm
E
They put...say I'm...you tacky...you put...
End of chorus
D
E
Hot tramp! I love...

E
You tacky thing you

Sign up to vote on this title
UsefulNot useful