You are on page 1of 12

Vox Dei

Gafas oscuras Transcripcin de Kleber Ordez


kliman2@latinmail.com
Vox Dei corregir
ALBUM: desconocido
vdei0281
INTRO
Lam7
Lam
6 |--------------------------|-----------------------|----------------------------------------------|
5 |--------------------------|-----------------------|----------------------------------------------|
4 |---2-------2---------2----|----2------2-------2---|---3----3-----2-2/hold/3----------------------|
3 |---|---0---------0--------|----|---2-------2------|---|--0--------------------0------------------|
2 |---1----------1-----------|----1--------1---------|---1-------1-----------------5/hold/6-5-1-3---|
1 |--------------------------|-----------------------|----------------------------------------------|
PRIMERA ESTROFA
Do
Mim
Con sus gafas oscuras, mirando a la gente
Rem
Sol
No se lo que piensas, muy dentro de ti.
Do
Mim
Y parado en la esquina, con la misma rutina
Rem
Sol
Y la gente solo sabe hablar
CORO:
Fa
Sol
/Como siempre el aire contaminado por ti
Fa
Sol La
Y siempre buscas lo mejor .UOUOUOOO
Do
Sol
Lam
Fa
Sol
Nooo, busques ms; lo que en esa esquina no est
Do
Sol
Lam
Fa
Sol
Nooo, busques ms; y recuerda que alguien piensa en ti
Fa
Sol
Do
Y aunque ests siempre all con tus gafas oscuras/
SEGUNDA ESTROFA
Do
Mim
Una lgrima fra, cae por tu mejilla
Rem
Sol
Tus amigos no la pueden negar
Do
Mim
Vas en busca de vida, pero eso es mentira
Rem
Sol
Porque en esa esquina no la hallars
CORO (Se repite 2 veces)
---------------------------------------------------------------------------------------

Vida Cristiana Transcripcin de Christian Obregon Bringas


christian_elec@hotmail.com
Vox Dei corregir
ALBUM: desconocido
vdei0181
C
Am
En esta vida Cristiana hay un precio que pagar
F
Dm
G
no se puede dar solo la mitad
C
Am
hay que darle todo al seor Jess,
F
Dm
G
dejarse a si mismo y tomar su cruz
Am
F
guardanos de vivir una fe de fantasias
Am
F
guardanos de vivir una vida de hipocresia
Am
G
F
enseanos a vivir dispuestos a morir
E
Am
como los apostoles de la iglesia primitiva
F
G
a no escatimar ni siquiera nuestra propia vida
C
Am
F
toma tu Cruz, sigue a Jesus y por su causa
Dm
G
entrega hoy tu vida
C
Am
F
toma tu Cruz, sigue a Jesus y por su causa
Dm
G
entrega hoy tu vida
En esta vida Cristian hay que amar de corazn
no se puede dar solo la mitad la fe debe ir acompaada
de nocin si no es asi no posee ningun valor
guardanos de olvidar que ser cristiano es amar
guardanos de olvidar que ser cristiano es perdonar
enseanos a vivir y a compartir del mensaje que
Cristo vino a dar y a este mundo su gloria reflejar
C
Am
F
toma tu Cruz, sigue a Jesus y por su causa
Dm
G
entrega hoy tu vida
-----------------------------------------------------------------------------------------Promesas Transcripcin de ASIEL BOJORQUEZ
rata_lira@yahoo.com
AUTOR: Estuardo meza
ALBUM: Cuenta regresiva (1999)
vdei0291
KE ONDA CHAVOS. AHORA COLABORO CON ESTA ROLA DE ALTO
IMPACTO, ESPERO LES GUSTE
G

D/F#

Em

ES TAN FACIL OLVIDAR PROMESAS


C
G/B Am
ES MAS FACIL ESCONDERSE
D
G
PERO ES TAN DIFICIL DE LLEGAR
D/F#
Em
FIRME HASTA EL FINAL
C
D
C
D G
OH JESUS YO QUIERO SERTE FIEL JESUS
MISMA SECUENCIA
ES TAN FACIL CRITICAR A OTROS
ES MAS FACIL SEALARLOS
PERO ES TAN DIFICIL DE ACEPTAR
Y RECONOCER MI ERROR
///OH JESUS YO QUIERO SERTE FIEL JESUS///
C
D
G
Em
///PORQUE CADA PROMESA QUE HAGO
C
G/B
Am
LA ESCRIBES EN TU CORAZON
C
D
G
D/F# Em
NO IMPORTA CUAN LEJOS O SOLO YO ESTE
F
D
TRATARE DE CUMPLIRLA POR TI///
MISMA SECUENCIA
PORQUE CADA PROMESA QUE HACES
LA ESCRIBES EN MI CORAZON
NO IMPORTA CUAN LEJOS
YO CREA QUE ESTAS
YO SE QUE TU LA CUMPLIRAS

--------------------------------------------------------------------------Vox Dei
Cristo (TAB) Transcripcin de Luis Loayza
louizloayza@gmail.com
AUTOR: Ricardo Soule-willie Quiroga-juan C.godoy
ALBUM: La Biblia (1971)
vdei0133
Afinar en D:
D|A|F|C|G|D|Intro:
Am
C
|--------5----5.----|-----------------|
|----5.--5-5--5.----|----5.-------5.--|
|----5.--5-5--5.----|-5--5.--5-5--5.--|
|-7--7.--7-7--7.----|-5--5.--5-5--5.--|
|-7---------------0-|-3------3-3------|
|-5-----------------|-----------------|

D
F
|-----------------|----------------------|
|----7.-------7.--|-----10.---------10.--|
|-7--7.--7-7--7.--|-10--10.--10-10--10.--|
|-7--7.--7-7--7.--|-10--10.--10-10--10.--|
|-5------5-5------|-8--------8--8--------|
|-----------------|----------------------|
Am
C
|--------5----5.----|-----------------|
|----5.--5-5--5.----|----5.-------5.--|
|----5.--5-5--5.----|-5--5.--5-5--5.--|
|-7--7.--7-7--7.----|-5--5.--5-5--5.--|
|-7---------------0-|-3------3-3------|
|-5-----------------|-----------------|
|
|-------------------|-----------------|
|-13----------------|-(13)------------|
|-------------------|-----------------|
|-------------------|-----------------|
|-------------------|-----------------|
|-------------------|-----------------|
D
F
|-----------------|----------------------|
|----7.-------7.--|-----10.---------10.--|
|-7--7.--7-7--7.--|-10--10.--10-10--10.--|
|-7--7.--7-7--7.--|-10--10.--10-10--10.--|
|-5------5-5------|-8--------8--8--------|
|-----------------|----------------------|
|
|-----------------|----------------------|
|-(13)------------|-(13)--------------15-|
|-----------------|----------------------|
|-----------------|----------------------|
|-----------------|----------------------|
|-----------------|----------------------|
Am
C
|----------5-------5.----|-------------------|
|------5.--5-5-----5.----|------5.-------5.--|
|------5.--5-5-----5.----|-5----5.--5-5--5.--|
|-7----7.--7-7-----7.----|-5----5.--5-5--5.--|
|-7--------------------0-|-3--------3-3------|
|-5----------------------|-------------------|
|
|------------------------|-------------------|
|-15-13----15-15-13---15-|-15-13-------------|
|------------------------|----------12/14----|
|------------------------|-------------------|
|------------------------|-------------------|
|------------------------|-------------------|
D
F
|-------------------|----------------------|
|------7.-------7.--|-----10.---------10.--|
|-7----7.--7-7--7.--|-10--10.--10-10--10.--|
|-7----7.--7-7--7.--|-10--10.--10-10--10.--|
|-5--------5-5------|-8--------8--8--------|

|-------------------|----------------------|
|
|-------------------|----------------------|
|--------13/15------|-13-------------------|
|-14/16-------------|----------------------|
|-------------------|----------------------|
|-------------------|----------------------|
|-------------------|----------------------|
Am
C
|-------------------5-----5.----|--------------------------|
|---------------5.--5-5---5.----|----------5.----------5.--|
|---------------5.--5-5---5.----|-5--------5.---5--5---5.--|
|-7-------------7.--7-7---7.----|-5--------5.---5--5---5.--|
|-7---------------------------0-|-3-------------3--3-------|
|-5-----------------------------|--------------------------|
|
|-------------------------------|------------------------15-|
|-18-18-17-15----------------18-|-18-17-15------------------|
|-------------17---12-12/14-----|----------17---12-12/14----|
|-------------------------------|---------------------------|
|-------------------------------|---------------------------|
|-------------------------------|---------------------------|
D
F
|-----------------------|-------------------------------------|
|------7.-------7.------|-10-------10-------10-------10-------|
|-7----7.--7-7--7.------|-10-10-10-10-10-10-10-10-10-10-10-10-|
|-7----7.--7-7--7.------|-10-10-10-10-10-10-10-10-10-10-10-10-|
|-5--------5-5----------|----8--8-----8--8-----8--8-----8--8--|
|-----------------------|-------------------------------------|
|
|-15-13--------------17-|-(17)--------------------------------|
|---------17-17-15------|-------------------------------------|
|-----------------------|-------------------------------------|
|-----------------------|-------------------------------------|
|-----------------------|-------------------------------------|
|-----------------------|-------------------------------------|
Con Bajo y piano:
Am
C
|-17-19-20----------------|-------------------|
|-----------15-15-13---15-|-15-13-------------|
|-------------------------|----------12/14----|
|-------------------------|-------------------|
|-------------------------|-------------------|
|-------------------------|-------------------|
D
F
|-------------------------|--------------------|
|--------13/15------------|-13-----------------|
|-14/16-------------------|--------------------|
|-------------------------|--------------------|
|-------------------------|--------------------|
|-------------------------|--------------------|
Am
C
Aqu est el camino para el que quiere ver
D
F

conoce la verdad, libre te har.


Am
C
Oh grita a una montaa, y pdele que se eche al mar
D
F Em D C
Am
si crees lo que dices, segu_____ro que se har
D
Am
D
Se har, si si se har
Am
E
Oooooh se har
Am
C
Escucha mis palabras reconcliate con vos
D
F
solo debes amar, as como amo yo.
Am
C
Ahora caminemos, que hay mucho por andar,
D
F Em D C
Am
ya vamos a estar senta_____dos y en paz
D

Am
D
despus de andar
Am
E
si si en paz, despus de andar
Solo 1:
E
Am
|---------15-|-16b18^^-16p15------------------------------------|
|------17----|---------------17-17p15------------15-15b17r15^^s-|
|------------|-------------------------17--14-17----------------|
|------------|--------------------------------------------------|
|------------|--------------------------------------------------|
|------------|--------------------------------------------------|
C
|------------------------------15-|
|-----5-5b7r5---------------15----|
|-5-7---------7-5-7-7^^-----------|
|---------------------------------|
|---------------------------------|
|---------------------------------|
D
|-16b18^^-16p15--------------------------|
|---------------17-17p15-----------15----|
|------------------------17--14-17----14-|
|----------------------------------------|
|----------------------------------------|
|----------------------------------------|
F
Am
|----------------------------------|------------------|
|-----10-8-------------------------|------------------|
|-7b9------9-7/5^^^^-5-7-5---5-----|------------------|
|--------------------------7---7-5-|-7^^-7-5-5/7^^----|
|----------------------------------|------------------|
|----------------------------------|------------------|
Final solo y empieza

el solo de teclado
| C | D | F | Em | D | C | Am |
| D | Am | D | Am | E |
Am
Am
Am
Am
G
A7
G
Am
G

Dm
Am Asus2 D
Ya no habr ms calma.
Dm
Ya empez el final.
Dm
Recuerda que sos mi amigo,
C C/B Am Am/G
y que no me perder_____s.
Dm
Y te cerrarn caminos,
C C/B Am Am/G
por decir lo que es verda_____d.
Dm
Pero nunca estars solo,
C C/B Am Am/G
porque all yo voy a esta___r.

| Am | E5 | G | D5 | x2
Am
E5
|-------------------------|-----------------------|
|*------------------------|-----------------------|
|-------------------------|-----------------------|
|----------------10-12-10-|-----------------------|
|*-13b15r13-12------------|-12-10-12--------------|
|-------------------------|-----------------------|
G
D5
|-------------------------|-----------------------|
|-------------------------|----------------------*|
|-------------------------|-----------------------|
|-------------13-12-10-12-|-13p12p10--------------|
|-13b15r13-12-------------|----------10-12-------*|
|-------------------------|-----------------------|
Am
Am

Dm
Am Asus2 D
Llorars amigo
Am
Dm
y me buscars
Am
Dm
ser cuando yo me haya ido
G
C C/B Am Am/G
a prepararte un luga_______r
A7
Dm
Pasar un poco de tiempo
G
C C/B Am Am/G
y ya no me ver_____s
Am
Dm
y otra vez pasar el tiempo
G
C C/B Am Am/G

y a verme volver_____s.
| Am | E5 | G | D5 | x2
Am
E5
|-------------------------|-----------------------|
|*------------------------|-----------------------|
|-------------------------|-----------------------|
|----------------10-12-10-|-----------------------|
|*-13b15r13-12------------|-12-10-12--------------|
|-------------------------|-----------------------|
G
D5
|-------------------------|-----------------------|
|-------------------------|----------------------*|
|-------------------------|-----------------------|
|-------------13-12-10-12-|-13p12p10--------------|
|-13b15r13-12-------------|----------10-12-------*|
|-------------------------|-----------------------|
Solo final (incompleto):
Am
E5
G
|------------|---------------|-------15b17-------------|
|------13----|-15b17---15p13-|-15-17-------15p13h15-15-|
|---14----14-|---------------|-------------------------|
|------------|---------------|-------------------------|
|------------|---------------|-------------------------|
|------------|---------------|-------------------------|
D5
Am
|-----------------------|------------------|
|-15-13-----------------|-15b16^^^^(16)r15-|
|-------14-12-14-12^^---|------------------|
|-----------------------|------------------|
|-----------------------|------------------|
|-----------------------|------------------|
E5
G
|------------------------|-----------------------|
|-15b16r15b16^^^^(16)r15-|-15b16r15b16^^(16)r15--|
|------------------------|-----------------------|
|------------------------|-----------------------|
|------------------------|-----------------------|
|------------------------|-----------------------|
D5
Am
|-----------------------|-----------------------|
|-15-13-----------------|-----------------------|
|-------14-12-14-12^^---|-------------------14--|
|-----------------------|-----------------------|
|-----------------------|-----------------------|
|-----------------------|-----------------------|
E5
G
|------------------|-----------------------|
|-18b20---17-15----|-----------------------|
|---------------17-|-16b18^^---------------|
|------------------|-----------------------|
|------------------|-----------------------|

|------------------|-----------------------|
D
Am
|----------------------------|-----------------------|
|----------------------------|-----------------------|
|-12h14-12-------------------|-----------------------|
|----------14-12-10----------|--------------------10-|
|-------------------14-12-10-|-12--------10h12-10----|
|----------------------------|-----------------------|
E5
G
|-----------------------|-----------------------|
|-----------------------|-----------------------|
|-----------------------|-----------------------|
|-12b14-10h12-----------|-----------------------|
|-------------12-15-----|-14b16-12----12--------|
|-----------------------|----------15-----------|
D5
Am
|-----------------------|-----------------------|
|-----------------------|-----------------------|
|-----------------------|--------0--------------|
|-----------------------|--------12p10----------|
|-----------------------|-----------------------|
|-----------------------|-----------------------|
E5
G
|-----------------------|-------------------------|
|-----------------------|-------------------------|
|----------0------0-----|-------------------------|
|----------12p10--12p10-|-10-12-10-------10b11----|
|-----------------------|----------12-10-------12-|
|-----------------------|-------------------------|
D5
Am
|-----------------------|-----------------17-15-|
|-----------------------|--------------17-------|
|-----------------------|-----------------------|
|-----------------------|-----------------------|
|-12/14-12-10-----------|-----------------------|
|-------------12-10-----|-----------------------|
E5
G
|-16b17-----------------|----20b22--------------|
|-----------------------|-----------------------|
|-----------------------|-----------------------|
|-----------------------|-----------------------|
|-----------------------|-----------------------|
|-----------------------|-----------------------|
D5
Am
|-18p17-15-16-16b17-----|-----------------------|
|-----------------------|-----------------------|
|-----------------------|-----------------------|
|-----------------------|-----------------------|
|-----------------------|-----------------------|
|-----------------------|-----------------------|
E5
G
|-----------------------|-----------------------|

|-----------------------|-----------------------|
|-----------------------|-----------------------|
|-----------------------|-----------------------|
|-----------------------|-----------------------|
|-----------------------|-----------------------|
D5
Am
|-----------------------|-----------------------|
|-----------------------|-----------------------|
|-----------------------|----------------14^^^^-|
|-----------------------|-------------14--------|
|-----------------------|-----------------------|
|-----------------------|-----------------------|
E5
G
|-----------------------|-----------------------|
|---------13b15---------|-----15b17^^^^---------|
|-(14)^^^---------------|-----------------------|
|-----------------------|-----------------------|
|-----------------------|-----------------------|
|-----------------------|-----------------------|
D5
Am
|-------------------|-----------------------|
|-15-13----13-------|-----------------------|
|-------14----14-12-|-12/14-----------------|
|-------------------|---------------------x-|
|-------------------|---------------------x-|
|-------------------|-----------------------|
E5
G
|-----------------------|-----------------------|
|-----------------------|---13b15---------------|
|-----------------------|-----------------------|
|-x-x-x----x---x--------|-----------------------|
|-x-x-x----x---x--------|-----------------------|
|-----------------------|-----------------------|
D5
Am
|-----------------------|-----------------------|
|-----------------------|-----------------------|
|-----------------------|-----------------------|
|-----------------------|-----------------------|
|-----------------------|-----------------------|
|-----------------------|-----------------------|
E5
G
|-----------------------|-----------------------|
|---15b17-(17)r15b17r15-|-(15)^^^^---------13---|
|-----------------------|-----------------------|
|-----------------------|-----------------------|
|-----------------------|-----------------------|
|-----------------------|-----------------------|
D5
Am
|--------------------|---15b17r15b17---------|
|-13-13-13---13------|-----------------------|
|---------------14s--|-----------------------|
|--------------------|-----------------------|
|--------------------|-----------------------|

|--------------------|-----------------------|
Sonido de trueno y algunos sonidos mas hasta que el tema acaba.
Notacin:
n/m
p
h
b
r
ns

slide de traste n a m
pull off
hammer on
bend
realise
slide de n a 0

-----------------------------------------------------------------------------------------------------------------------------------------------------------------Credo Transcripcin de Christian Obregon Bringas


christian_pob@yahoo.com
Vox Dei corregir
ALBUM: Cuenta regresiva
vdei0211
Intro: //G E Bm Am G//
D
Creo en un Dios
G
el padre el hijo y su espiritu
D
en un reino de amor que me ha
G
librado de la muerte
C
Su palabra es Verdad
G
que ilumina mi camino
D
y para siempre yo estare
G
en sus manos seguro
D
y para siempre yo estare
C
G
en sus manos seguro
D
Creemos en un Dios
G
el padre el hijo y su espiritu
D
en un reino de amor que nos ha
G
librado de la muerte
C

su palabra es verdad que ilumina


G
nuestro camino
D
y en sus manos estaremos
C
para siempre seguros
PUNTEO: G D G C G D G C G
--------------------------------------------------------------------------------------