You are on page 1of 20

Bleeding In Love Tab by Boyce Avenue, www.Ultimate-Guitar.

Com

Learn to play "Bleeding In Love" with online video lessons

This song is orignally by Leona Lewis but this one by Boyce Avenue is just in a different key.
P.S. I just noticed I mispelled the song name and it's "Bleeding Love", sorry people.

I played the chords exactly before/after/in between the lyrics. They are where they need
be played so if theres a seperation between lyrics play there. If you STILL cannot get it
listen to the song for exact rythme pattern. I tried my best and i think this is pretty accurate
so....
ENJOY THE TAB!!

INSTRUCTIONS:
* = 2 shot chords (staccato)
^ = strum chord once and let ring until next chord (NOT staccato)
~ = hold note longer (1.5 beats)
~~= Let Ring (only the last chord has this symbol so dont worry too much)

C*
Closed off from love I didn't need the pain

Am*
Once or twice was enough and it was all in vain

F* G*
Time starts to pass before you know it you're fro-zen

Ooooh...

C* C^ C* C^
But something ha-ppened for the very first time with you

Am* Am^ Am* Am^


My heart melts into the ground found some-thing true

F* F^ F* F^ G*
And everyone's looking a-round thinking I'm going cra-zy...

G^ G*
Yeahh.....

|========Chorus========|

C
But I don't care what they say I'm in love with you

Am
They try to pull me away but they don't know the truth

F G
My heart's crippled by the vein that I keep on clo-sing

(G)
You cut me open and I

C
Keep bleeding, keep, keep bleeding love

Am
I keep bleeding I keep, keep bleeding love

F G
Keep bleeding, keep, keep bleeding love

(G)
You cut me open

e|--------------------------|
B|----1~----1-----1~----1---|
G|---0-----0-----0-----0----|
D|--------------------------|
A|-3-----3-----3-----3------|
E|--------------------------|
Trying hard not to hear but they talk so loud

e|----------------------------|
B|-----1~----1-----1~----1----|
G|---------2-----------2------|
D|---2---2-------2---2--------|
A|-0-----------0--------------|
E|----------------------------|
Their piercing sounds fill my ears try to fill me with doubt

e|----------------------------|
B|-----1~---1-----1~----1-----|
G|----------------------------|
D|---3----3-----3-----3-------|
A|----------------------------|
E|-1----1-----1-----1---------|
Yet I know that their goal is to keep me from fa-

e|----------------------------|
B|-----3~---3-----3~----3-----|
G|----------------------------|
D|---0----0-----0-----0-------|
A|----------------------------|
E|-3----3-----3-----3---------|
-lling

Hey, yeah!

e|-----------------------------------|
B|------1-------1-------1-------1----|
G|----0---0---0---0---0---0---0---0--|
D|-----------------------------------|
A|-3----------------3----------------|
E|----------3---------------3--------|
But nothing's greater than the rush that comes with your embrace

e|-----------------------------------|
B|------1-------1-------1-------1----|
G|----2---2---2---2---2---2---2---2--|
D|----------2---------------2--------|
A|-0----------------0----------------|
E|-----------------------------------|
And in this world of loneliness I see your face

e|-----------------------------------|
B|------1-------1-------1-------1----|
G|----2---2---2---2---2---2---2---2--|
D|-----------------------------------|
A|-----------3---------------3-------|
E|-1----------------1----------------|
Yet everyone around me thinks that I'm going cra-

e|-----------------------------------|
B|------3-------3-------3-------3----|
G|----0---0---0---0---0---0---0---0--|
D|-----------------------------------|
A|-----------------------------------|
E|-3--------3-------3-------3--------|
-zy...maybe, maybe

|========Chorus========|

C
But I don't care what they say I'm in love with you

Am
They try to pull me away but they don't know the truth

F G
My heart's crippled by the vein that I keep on clo-sing

(G)
You cut me open and I

C
Keep bleeding, keep, keep bleeding love

Am
I keep bleeding I keep, keep bleeding love

F G
Keep bleeding, keep, keep bleeding love

|========Bridge========|
(G) Am
You cut me open and I...Ohhh

F C
You cut me open and I
G
I keep bleeding love, you cut me open.

e|------------------------------------------0~~|
B|------1---------------------1-------------1~~|
G|----2---------------------2---------------0~~|
D|------------------------------------------2~~|
A|-0----------------------------------------3~~|
E|------------------------1--------------------|

I keep bleeding, I keep, keep bleeding love.

Love Story Tab by Taylor Swift, www.Ultimate-Guitar.Com

Learn to play "Love Story" with online video lessons


I am almost certain about this, or maybe just one or two notes wrong :P For
the
intro and chords check out the others, this one is the "solo" part after 2nd
chorus.

E E E E E E E E E E E E E E Q
E||--------3-----2-----0-----|--------0-----2-----0----|
B||--3--3-----3-----3-----3--|--3--3-----3-----3-------|
G||--------------------------|-------------------------|
D||--------------------------|-------------------------|
A||--------------------------|-------------------------|
E||--------------------------|-------------------------|

E E E E E E Q E E E E E E E E E E E E E E E E
--------0-----2-----0----|--------0-----------0-----|--3-----2-----
0-----------|
--2--3-----3-----3-------|-----3-----3--2--3-----3--|-----3-----3-----3--3--
3--|
-------------------------|--------------------------|------------------------
--|
-------------------------|--------------------------|------------------------
--|
-------------------------|--------------------------|------------------------
--|
-------------------------|--------------------------|------------------------
--|

E E E E E E E E E E E E E E E E
--------------------------|--0-----------------------|
--2--3--2--0--------------|-----3--3--2--2--0--0-----|
--------------2--0-----0--|-----------------------2--|
--------------------4-----|--------------------------|
--------------------------|--------------------------|
--------------------------|--------------------------|

E E E E E E E E
--------------------------||
-----------------------0--||
--2--0--0--------0--2-----||
-----------4--4-----------||
--------------------------||
--------------------------||

Love Story Tab by Taylor Swift, www.Ultimate-Guitar.Com

Learn to play "Love Story" with online video lessons


Taylor Swift - Love Story ^_^

Chords Used:

D 000230
G 300230
Bm 024430
A 002230
E 079900
B 024400
C#m 046600

Intro:

E||-------0-----0-----------|-------0-----0-----------|
B||----------3-----3-----3--|----------3-----3-----3--|
G||-----2-------------2-----|-----2-------------2-----|
D||--4----------------------|--4----------------------|
A||-------------------------|-------------------------|
E||-------------------------|-------------------------|

--------0-----0-----------|--------0-----0-----------|
-----------3-----3-----3--|-----------3-----3-----3--|
-----2--------------2-----|-----2--------------2-----|
--2-----------------------|--2-----------------------|
--------------------------|--------------------------|
--------------------------|--------------------------|

--------0-----0-----------|--------0-----0-----------|
-----------3-----3-----3--|-----------3-----3-----3--|
-----4--------------4-----|-----4--------------4-----|
--4-----------------------|--4-----------------------|
--------------------------|--------------------------|
--------------------------|--------------------------|
--------0-----0-----------|--------0-----0-----------|
-----------3-----3-----3--|-----------3-----3-----3--|
-----2--------------2-----|-----2--------------2-----|
--5-----------------------|--5-----------------------|
--------------------------|--------------------------|
--------------------------|--------------------------|

Verse:

D
We were both young when i first saw you
G
I close my eyes and the flashback starts
Bm G
Im standing there on a balcony of summer air

D
See the lights, See the party the ball gowns
G
I see you make your way through the crowd
Bm
You say hello
A
Little did i know

G A
That you were romeo you were throwing pebbles
Bm D
And my daddy said stay away from Juliet
G
And i was crying on the staircase
A Bm D
Begging you please don't go, and i said

Chorus:

D
Romeo take me somewhere we can be alone
A
I'll be waiting all theres left to do is run
Bm
You'll be the prince and i'll be the princess
G A D
Its a love story baby just say yes

Repeat Intro

Verse 2
D
So i sneak out to the garden to see you
G
We keep quite because we're dead if they know
Bm
So close your eyes
A
Let’s keep this down for a little while
G A
Cause you were Romeo I was a scarlet letter

Bm D
and my daddy said stay away from Juliet
G
But you were everything to me
A Bm D
and i was begging you please don't go and i said

CHorus:

D
Romeo take me somewhere we can be alone
A
I'll be waiting all theres left to do is run
Bm
You be the prince i'll be the princess
G A D
Its a love story baby just say yes

D
Romeo save me, try to tell me how it is
A
This love is difficult, but its real,
Bm
Save me from the breakdown, make it out of this mess
G A
Its a love story baby just say yes, oh

D A Bm G

Bm G D A
I got tired of waiting, wondering if you were ever coming around
Bm G
My faith in you was fading
D A
Then i met you on the outskirts of town and i said

D
Romeo save me i've been feeling so alone
A
I keep waiting for you but you never come
Bm
Is this in my head, i don't know what to think
G A
He nelt to the ground and pulled out a ring and said

E
Marry me Juliet you'll never have to be alone
B
I love you and thats all I really know
C#m
I talked to your dad go pick out a white dress
A B E
Its a love story baby just say yes
E B C#m
Oh, oh, yes
A E
We were very young when i first saw you
Time Of My Life Chords by David Cook, www.Ultimate-Guitar.Com

Learn to play "Time Of My Life" with online video lessons


CAPO 1

Em C
I’ve been waiting for my dreams
G
To turn into something
D
I could believe in
Em
And looking for that
C
Magic rainbow
G
On the horizon
D
I couldn’t see it

Am
Until I let go
C G D
Gave into love and watched all the bitterness burn
C
Now I’m coming alive
G
Body and soul
Em D
And feelin’ my world start to turn

G
And I’ll taste every moment
D
And live it out loud
Em
I know this is the time,
C
This is the time
G
To be more than a name
D
Or a face in the crowd
Em
I know this is the time
C G
This is the time of my life

Holding onto things that vanished


Into the air
Left me in pieces
But now I’m rising from the ashes
Finding my wings
And all that I needed
Was there all along
Within my reach
As close as the beat of my heart

So I’ll taste every moment


And live it out loud
I know this is the time,
This is the time to be
More than a name
Or a face in the crowd
I know this is the time
This is the time of my life
Time of my life

D Am
And I’m out on the edge of forever
D
Ready to run
D Am
I’m keeping my feet on the ground
D
My arms open wide
E
My face to the sun

I’ll taste every moment


And live it out loud
I know this is the time,
This is the time to be
More than a name
Or a face in the crowd
I know this is the time
This is the time of my life
Time of my life
More than a name
Or a face in the crowd
This is the time
This is the time of my life.
This is the time of my life
Ordinary People Chords by John Legend, www.Ultimate-Guitar.Com

Learn to play "Ordinary People" with online video lessons


John Legend ~ "Ordinary People"

Tabbed by: Law&GuitarGuy

This is my first tab, but I'm pretty confident in it. A lot of these chords
are very
(e.g., Bbmaj7 and Bbmaj9), you'll probably notice a distinctly more exact
sound when you
them where I've indicated.

Feel free to send me any questions or comments. Thanks.

Bbmaj7: x13231
Bbmaj9: x10211
Bb69: x10011
Bbm7: x13121
Db/Eb: xx1121
Ebmaj7: xx1333
Ebmaj9: xx1331
Fmaj7: 1x2210
Fmaj9: xx3553
Fmaj13: 1x0210
Fadd2: xx3213

Intro:
------
Bbmaj7 Bb69 Ebmaj9 Fmaj7
Bbmaj7 Bb69 Ebmaj7 Fmaj9

Verse 1:
--------
Bbmaj9 Ebmaj9
Girl I'm in love with you, but this ain't the honey moon.

Fadd2
We're past the infatuation phase.

Bbmaj7 Ebmaj9
We're right in the thick of love. At times we get sick of love.

Fmaj13
It seems like we argue every day.

Prechorus:
----------
Bbmaj7 Ebmaj9
I know I've misbehaved and you've made your mistakes
Fmaj9
and we've both still got room left to grow.

Bbmaj7 Ebmaj9
And though love sometimes hurts, I still put you first.

Fmaj9
And we'll make this thing work but I think we should take it slow.

Chorus:
-------
Bbmaj9 Ebmaj9 Fmaj7
We're just ordinary people. We don't know which way to go.

Bbmaj7 Ebmaj7 Ebmaj9 Fmaj9


'cause we're ordinary people, maybe we should take it slow.

Bbmaj7 Ebmaj9 Fmaj9


Take it slow, oh oh. This time we'll take it slow.

Bbmaj7 Ebmaj9 Fmaj13


Take it slow, oh oh. This time we'll take it slow.

Verse 2:
--------
Bbmaj9 Ebmaj9
This ain't a movie, naw. No fairy tale conclusion, y'all.

Fmaj7
It gets more confusing every day.

Bbmaj9 Ebmaj9
Oh, sometimes it's heaven sent, then we head back to hell again.

Fmaj7
We kiss then we make up on the way.

Prechorus:
----------
Bbmaj7 Ebmaj9
I hang up, you call. We rise and we fall,

Fmaj9
and we feel like just walking away.

Bbmaj7 Ebmaj9
But as our love advances, we take second chances.

Fmaj9
Though it's not a fantasy, I still want you to stay.

Chorus:
-------
Bbmaj9 Ebmaj9 Fmaj7
We're just ordinary people. We don't know which way to go.

Bbmaj7 Ebmaj7 Ebmaj9 Fmaj9


'cause we're ordinary people, maybe we should take it slow.

Bbmaj7 Ebmaj9 Fmaj9


Take it slow, oh oh. This time we'll take it slow.

Bbmaj7 Ebmaj9 Fmaj9


Take it slow, oh oh. This time we'll take it slow.

Bridge:
-------
Bbm7
Take it slow.

Db/Eb
Maybe we'll live and learn. Maybe we'll crash and burn.

Fmaj9
Maybe you'll stay; maybe you'll leave; maybe you'll return.

Bbm7 Db/Eb
Maybe another fight; maybe we won't survive;

Fmaj9
But maybe we'll grow. We never know, baby, you and I.

Chorus:
-------
Bbmaj9 Ebmaj9 Fmaj7
We're just ordinary people. We don't know which way to go.

Bbmaj7 Ebmaj7 Ebmaj9 Fmaj9


'cause we're ordinary people, maybe we should take it slow.

Bbmaj7 Ebmaj9 Fmaj9


Take it slow, oh oh. This time we'll take it slow.

Bbmaj7 Ebmaj9 Fmaj9


Take it slow, oh oh. This time we'll take it slow.

Outro:
------
Bbmaj7 Ebmaj9
Take it slow, oh oh.

Fmaj9
This time we'll take it slow.

Bbmaj7 Ebmaj9
Take it slow, oh oh.
Fmaj7
This time we'll take it slow.

Bbmaj7 Ebmaj7 Ebmaj9 Fmaj7


Take it slow, slow. This time we'll take it slow.

Bbmaj7 Ebmaj7 Fmaj13


Take it slow, oh oh. This time we'll take it slow.
If I Were A Boy Tab by Beyonce Knowles, www.Ultimate-Guitar.Com

Learn to play "If I Were A Boy" with online video lessons


Hey guys! This is my tab for beyonce's if i were a boy! hope you like!

just a few things...

v?: an unknown variation of the chord that i don't know the name of... sorry!

most of the chords are at the top but i couldn't do all of them...

xx Ash xx

Guitar 1

(Verse 1)

(repeat this through verse 1.)

Em7 G(v?) G D(v?) Em7 G(v?) G D


e|-------------------------------------------------|
B|-----3-----1-----3-----3-----3-----1-----3---3---|
G|-----0-----0-----0-----2-----0-----0-----0---2---|
D|---2-----2-----0-----0-----2-----2-----0-----0---|
A|-------------------------------------------------|
E|-0-----3-----3-----2-----0-----3-----3-----2-----|

(1st and 2nd chorus)

Em7 Cadd9 G
If I were a boy
D Em7 Cadd9 G D
I think I could understand
Em7 Cadd9
How it feels to love a girl
G D Em7 Cadd9 G
I swear I’d be a better man.
D Em7 Cadd9 G
I’d listen to her
D Em7 Cadd9 G D
Cause I know how it hurts
Em7 Cadd9
When you lose the one you wanted
G D
Cause he’s taken you for granted
Cadd9
And everything you had got destroyed
(verse 2- repeat through verse 2)

Em7 G(v?) G D(v?) Em7 G(v?) G D


e|-------------------------------------------------|
B|-----3-----1-----3-----3-----3-----1-----3---3---|
G|-----0-----0-----0-----2-----0-----0-----0---2---|
D|---2-----2-----0-----0-----2-----2-----0-----0---|
A|-------------------------------------------------|
E|-0-----3-----3-----2-----0-----3-----3-----2-----|

(Go back to chorus)

(bridge)

Em7 Cadd9 G D Em7


It’s a little too late for you to come back
Cadd9 G
Say its just a mistake
D Em7
Think I’d forgive you like that
Cadd9 G
If you thought I would wait for you
D
You thought wrong

(last chorus)

but you're just a boy, you just don't understand (repeat until end of chorus)
e|-----------------------------------------------------------|
B|-----------------------------------------------------------|
G|-----0-------0-----0-------2--------0-------0-----0----2---|
D|---0---0---0-----0---0---0--------0---0---0-----0---0--0---|
A|---------3------------------------------3------------------|
E|-0-------------3-------2--------0-------------3--------2---|

Guitar 2.

(verse 1)

Drink beer with the guys... (Keep repeating until end of chorus)

e|---3-----3---3-----3---2---2s3-|
B|-----3-----------3---3---3-----|
G|-4-----5---5---5---------------|
D|-------------------------------|
A|-------------------------------|
E|-------------------------------|

(verse 2)

If i were a boy, I would turn off my phone...


Em7 G(v?) G D(v?) Em7 G(v?) G D(v?)
e|-------------------------------------------------|
B|-3-----1-----3-3-----3-----3-----1-----3-3-----3-|
G|-0-----0-----0-0-----2-----0-----0-----0-0-----2-|
D|-------------------------------------------------|
A|-------------------------------------------------|
E|-0-----3-----3-3-----2-----0-----3-----3-3-----2-|

I'd put myself first... (repeat until end of chorus)

e|---3-----3---3-----3---2---2s3-|
B|-----3-----------3---3---3-----|
G|-4-----5---5---5---------------|
D|-------------------------------|
A|-------------------------------|
E|-------------------------------|

(Bridge)

It's a little late for you to come back...

------------------------------------|
----3--------1--------3--------3----|
------0--------0--------0--------2--|
--2--------2--------0--------0------|
--------3---------------------------|
0-----------------3--------2--------|

(Chorus)

But you're just a boy, you just don't understand...

Em7 G(v?) G D(v?) Em7 G(v?) G D(v?)


e|-------------------------------------------------|
B|-3-----1-----3-3-----3-----3-----1-----3-3-----3-|
G|-0-----0-----0-0-----2-----0-----0-----0-0-----2-|
D|-------------------------------------------------|
A|-------------------------------------------------|
E|-0-----3-----3-3-----2-----0-----3-----3-3-----2-|

Em7 Cadd9
How it feels to love a girl someday
G D Em7 Cadd9 G
You wish you were a better man
D Em7 Cadd9 G
You don’t listen to her
D Em7 Cadd9 G
You don’t care how it hurts
D Em7 Cadd9
Until you lose the one you wanted
G D
Cause you’ve taken her for granted
Cadd9
And everything you have got destroyed
But you’re just a boy
e|-----------------------|
B|-3-----1------3------3-|
G|-0-----0------0------2-|
D|-----------------------|
A|-----------------------|
E|-0-----3------3------2-|

Lyrics:

If I were a boy
Even just for a day
I’d roll outta bed in the morning
And throw on what I wanted then go
Drink beer with the guys
And chase after girls
I’d kick it with who I wated
And I’d never get confronted for it.
Cause they’d stick up for me.

[Chorus]
If I were a boy
I think I could understand
How it feels to love a girl
I swear I’d be a better man.
I’d listen to her
Cause I know how it hurts
When you lose the one you wanted
Cause he’s taken you for granted
And everything you had got destroyed

If I were a boy
I could turn off my phone
Tell evveryone it’s broken
So they’d think that I was sleepin’ alone
I’d put myself first
And make the rules as I go
Cause I know that she’d be faithful
Waitin’ for me to come home (to come home)

(Chorus)

Bridge:

It’s a little too late for you to come back


Say its just a mistake
Think I’d forgive you like that
If you thought I would wait for you
You thought wrong

(Chorus)

But you’re just a boy


You don’t understand
Yeah you don’t understand
How it feels to love a girl someday
You wish you were a better man
You don’t listen to her
You don’t care how it hurts
Until you lose the one you wanted
Cause you’ve taken her for granted
And everything you have got destroyed
But you’re just a boy
I Hate This Part Chords by Pussycat Dolls, www.Ultimate-Guitar.Com

Learn to play "I Hate This Part" with online video lessons
-----------------------------------------------------------------------------
--
I Hate This Part - Pussycat Dolls
-----------------------------------------------------------------------------
--
Tabbed by: Kismet-xx

Dm
We're driving slow through
F
the snow on 5th Avenue
C Bb
And right now radio's all
that we can hear
Dm
Now we ain't talk since
F
we left it's so overdue
C Bb
It's cold outside but between
us it's worse in here

Dm F
The world slows down
C
But my heart beats
Bb
fast right now
Dm F C
I know this is the part
Bb
Where the end starts

Dm F
I can't take it any longer
C
Thought that we were stronger
Bb
All we do is linger
Dm
Slipping through my fingers
F
I don't wanna try now
C
All that's left's goodbye to
Bb
Find a way that I can tell you

Dm F
I hate this part right here
C Bb
I hate this part right here
Dm F
I just can't take your tears
C Bb
I hate this part right here

Dm F
Everyday 7 takes of
the same old scene
C
Seems we're bound by
Bb
the laws of the same routine
Dm F
Gotta talk to you now
before we go to sleep
C
But will we sleep once
Bb
I tell you what's hurting me

Dm F
The world slows down
C
But my heart beats
Bb
fast right now
Dm F C
I know this is the part
Bb
Where the end starts

Dm F
I can't take it any longer
C
Thought that we were stronger
Bb
All we do is linger
Dm
Slipping through my fingers
F
I don't wanna try now
C
All that's left's goodbye to
Bb
Find a way that I can tell you

Dm C
I know you'll ask me to hold on
Bb F C
And carry on like nothing's wrong
Dm C
But there is no more time for lies
Bb F C
Cause I see sunset in your eyes

Dm C
I can't take it any longer
Bb
Thought that we were stronger
F
All we do is linger
C Dm
Slipping through my fingers
C
I don't wanna try now
Bb
All that's left's goodbye to
F C
Find a way that I can tell you

Dm F
That I gotta do it
C
I gotta do it
Bb
I gotta do it
Dm
I hate this part
F
I gotta do it
C
I gotta do it
Bb ohh
I gotta do it

Dm F
I hate this part right here
C Bb
I hate this part right here
Dm F
I just can't take these tears
C Bb
I hate this part right here