You are on page 1of 6

Bohemian Rhapsody Classical

Intro:
-5--5--5--5---5--5--5--5--5--5-----7----4--4--4--5--4-------|
-7--7--7--7---7--7--7--7--7--7-----7----5--5--5--7--5-------|
-9--9--9--9---9--8--8--8--9--8--6--8----7--7--7--7--7-------|
------------------------------------------------------------|
-------------------------------------------------------7--7-|
------------------------------------------------------------|
-5--5--5--5----------------------2------------------0-----------------------10----10-|
-5--5--7--5--7--5----2--2--2--2----2-------2--2--3--2--2---10--------10--12----10----|
-6--6--7--6--7--6----2--2--2--2------2--2--0--0--4--0--2---11-----11-----12----11----|
-------------9--7----4--4--4--4---------4--------5---------12--12--------------------|
-------------------------------------------0-----------------------------------------|
---------------------2---------------------------------------------------------------|
2x
-----------------9--0--0--2-----0--2/4-||-6--6--5\--4--4--5\-||
-7--7--7--7---7-----0--------3--0------||-6--6--5\--4--4--5\-||
-7------------------1------------------||-7--7--6\--5--5--6\-||
-7-------------------------------------||--------------------||
---------------------------------------||--------------------||
-7------------------0------------------||--------------------||
-2--2--2--2--0h2p0---5---5--5--5--5--4---------|
-3-------------------2---4--4--4--4-----3------|
-2-------------------2---------------4--4--1/2-|
-0-----------------------4--4--4--4------------|
-------------3-----------3---------------------|
-------------------------------------0---------|
Verse:
2x
2x
||-----------2-------||----------4----2---||----------0---------||----7-|
||--------2------5---||-2-----2---------2-||--0h2--3-----3--2-0-||------|
||-2----2----------2-||-----2-------2-----||-------0-----0----1-||-7h9--|
||----2--------2-----||---4------4--------||------------------2-||------|
||-0---------0-------||-------------------||-------2-----2------||------|
||-------------------||-2-----------------||--------------------||------|
-----------2---------------------4----2----0--5--5--5--5--5------------------0-|
--------2------5---2h5--2-----2---------2-----7--------7----7--2h3p2-0----2--1-|
-2----2---------------------2-------2---------7-----7-----7----2----------2--2-|
----2--------2---2--------4------4-----------------------------4--------4------|
-0---------0---------------------------------------------------0---------------|
------------------------2---------------------7-----------6------------------0-|
-----------2--2------------0---2h3----------2--|
-0---------3-----3------------------3----3-----|
-0---------2-------2----2--------------4-------|
-2--4--2---0---------0----------------4--------|
---------------------------4--------2--------2-|
-3--2------------------------------------------|
*
-3--2-2--0---0----------------2-2--3--3--5--3--2-----0h2--5------2-|
-0-----------0----------5--5----------2-----------3------------2---|
-0----------------2--2-----2----2-----2--------2-------------2-----|
-2-------1---0------------------------------0----------------------|
----------------4----0-----0----0-----0-------------------4--------|
-------------------------------------------------------------------|

--------------------------------------10----10----10---10-| -3-----------------------------10--12----10-----9----8----| -----4--2-2--3--5--3--------11-----12----11----10----9----| ---4---------5--------0--12-------------------------------| -2-----------5--------------------------------------------| -------------3--------------------------------------------| repeat verse until * -7-----7---9/10---7--9/10---12--------12--14--15-17-19---17-15-14-15-14h15p14p12-| -7--7--7----------7----------0--0--12--0-------------0---------------------------| -7--7--7----------7----------0--0------0-------------0---------------------------| -9--9--9----------7----------9---------------------------------------------------| -9-----9----------9---------10---------------------------0-----------------------| -7-----7----------7----------0--0------------------------------------------------| -14-12-10-12-10h12p10p9--9--10--9h10p9----9------------2------------2-3-5-| ---------------------------------------12---12-10-10---3------2-3-5-----2-| -------------------------------------------------------2--2-4-----------2-| -------------------------------------------------------0------0---------2-| -0-----------------------0-------------------------0--------------------4-| --------------------------------------------------------------------------| -5-----------2-3-5--7------9/10--7--9/10-7--9/10--12-------------12-------------| -2-----2-3-5--------7------------7-------7---------0------5-7-8------8----------| -2-2-4--------------7---7--------7-------7---------0--------------9--5--5--5--5-| -2------------------7---7--------7-------7---------9----------5------5--5--5--5-| -4------------------9---9--------9-------9--------12---7--6---5-----------------| --------------------7---7--------7-------7---------0----------------------------| -8--8--8----| -5--5--5----| -5--5--5--5-| ------------| ----------0-| -8--7--6----| -------------------------------------------------------------------| -----4--4--4--4--4--4--4--6--4--4--3--3--4--4--6--6--4--4--3--4--4-| -----5--5--5--5--5--5--5--6--5--5--4--4--5--5--6--6--5--5--4--5--5-| -6---6--6--6--6--6--6--6--6--6--6--6--6--6--6--6--6--6--6--6--6--6-| -------------------------------------------------------------------| -4-----------------------------------------------------------------| --4--------4-----------------4--------------------------2--2--2--2-----3--4-| --6--4--4--6--4--4--3--3--4--6--4---5--5--3--5---6--6---2--2--2--2--4--4--4-| --6--5--5--6--5--5--4--4--5--6--5---5--5--4--5---4--4---3--3--3--3--3--3--5-| -----6--6-----6--6--6--6--6-----6---5--5--4--5---5--5---------------5-----6-| --------------------------------------------------------------------6--6--6-| ------------------------------------3--3--3--3---3--3---2--2--2--2--------4-| -11-11-12p11-------------11-11-11-12p11---------------11-11-12-11-9-7-6---4--4-| -------------------------------------------------------------------------------| -------------------------------------------------------------------------------| ------------------------------------------------------------------------7------| -------------11-11-12p11----------------11-11-12p11---11-11-12-11-9-7-6--------| -------------------------------------------------------------------------------| .

Harm H H ---------------------------------------------------7--5-5--4--5--7-7--5--4-4--5-| --------------0------------------------------------0--7-7--6--7--0-0--7--6-6--7-| -----11--------------------------------------------0--7-7--4--7--0-0--7--4-4--7-| -(7)----(12)-----------8--7-7--6--7--8--7-7--6--7--0-------------0-0------------| -----------------(12)------------------------------5-------------5-5------------| -----------------------6--5-5--4--5--6--5-5--4--5-------------------------------| mute -7--7/9---5--5-5--4--4-4-4--5------------10----10---10---10---------------------------------| -0--0-----7--7-7--3--3-3-3--2--10-10--12----10----9----8-----6--5-5--4--5--6-6--5-5--4-4--5-| -0--0-----7--7-7--4--4-4-4--2---------12----11---10----9-----7--6-6--5--6--7-7--6-6--5-5--6-| -0--0-------------2--2-2-2--2--------------------------------8--7-7--6--7--8-8--7-7--6-6--7-| -5--5-------------2--2-2-2--0---------------------------------------------------------------| -------------------------------------------------------------6--5-5--4--5--6-6--5-5--4-4--5-| 4x ||---------------------10-10-10-||---5------------------5---9--10-| ||--------7-5-7-8-7-5--10-10-10-||-----6----------6--5--6--10---7-| ||--------7-6-7-9-7-6--11-11-11-||-5-----8--6--5--6--5--5---9---7-| ||------------------------------||----------8--6--6--5--7-------0-| ||-0/5-0------------------------||----------8--6--4--3--8---0-----| ||------------------------------||----------6--4------------------| ---------------------5-5--7-5--3--2--0--5--10-10--10--10---9--9--9--9--14--14-| ---------------------7-7--8-7--5--3--2--5---7--7---0---0---9--9--9--9---------| -2-2--4p2--2-2--4p2------------------2--6---7--7---0---0--10-10-10-10--14--14-| ---------------------0-0--0-0--0--0-----7---0--0------------------------------| -------------------------------------0--0------------------------------16--16-| -----------------------------------------------------------9--9--9--9--14--14-| 8x -3--3-3-3--2--2--7--7-7-7--5--5--||-17-17-17-|| -2--2-2-2--2--2--5--5-5-5--5--5--||-14-14-14-|| -2--2-2-2--2--2--6--6-6-6--6--6--||-14-14-14-|| -2--2-2-2--2--2--7--7-7-7--7--7--||-14-14-14-|| -0--0-0-0--0--0--0--0-0-0--0--0--||-0--0--0--|| ---------------------------------||----------|| 3x ||-2------------||--0-----------------------3-3-3--2-2-2---------------| ||-3----------2-||3-0---------0-2-0---------2-2-2--2-2-2--5-5-3--3---3-| ||-2----0-2-4---||--1--1---2-------------2--2-2-2--2-2-2--2-2-2--2---2-| ||-4--4---------||--2--------------------2------2------2--2---4--4-4-4-| ||-0------0-----||--2--------------------0------0------0---------------| ||--------------||--0----0----0------0---------------------------------| -3--7-----------2---3-3-3--3-3-3--3-3-3--2--0-------------------3----3---3--2--2-| -3-----3--------0------------------------2-------------------0--0----0---0--0--0-| -4-----4--------0------------------------2-------------------0--0----0---0--0--0-| -5-----5--5--4--2------------------------2-----2h4p2---------2-------------------| -5-----5--------2------------------------0--0--0------4p2p0--2-------------------| -3-----3--3--2--0---0------0------0--------------------------0-----0---0---0-----| -2--0-------------------------------------------------------------------------| -2-------------------3--3-3-3--3/5-----3--3-3-3--5--3---2---3-----------------| -2-------------------0-----------------0--------------------2-------0--2--2h4-| -2---------2--4p2----2-----------------2--------------------4--4-0------------| -0--0--2h4--------4--2---------0----0--2---------0----0----------------0--0---| ---------------------0--0--------------0--0-----------------------------------| .

-------------------------------------0----------------0---------------------| -3----------------3-------------2-3--0---------0--2-4-----------------------| -2-------2h4p2----2-------2--4-------1--1----2-------------0--2--4--2--4--5-| -4--4-0-----------4--4-0-------------2------------------3-------------------| ---------0-----0----------0-----0----2------------------------0--2--0--2--3-| -------------------------------------0----0----0----0---1--3----------------| -----------------------------------------------------------------------2---3-| ----------------------------------------------------------2-3p2h3-5-3-5--5---| -------------------------7-8---------------------0-2--2h4--------------------| --------6----6--8-6-8-10-----------0---0-2-0-2-3-----------------------------| -6h8h10---10-----------------0h2h3---3----------------0----------------------| -6---------------------------3-----------------------------------------------| -----------------------------------0---| -------------------------------2-------| ----------------------0---0--2---2---2-| -------0---0--2h4p2-4---4--------------| -0h2h4---4----------------0------------| -5-------------------------------------| Outro: -2------2--5-------------5--------------7--2-------2---------------2h3-2-5-| -3----3----3--5----2--5--2-----------7--7--2--5-3--2---5--3--2---------3-7-| -2--2------2--2--2-------2---7-----7----7--3----4--3------4--2-0-------2-5-| -0---------0-----------------9--9-------9--4----4--4------4------4-2---0---| --------------4----------4---9----------9--4----2--4------2--0-------------| -----------------------------7----------7--2-------2-----------------------| -4-----4--5---------------------------------3-2---------2----2----0-2-----| -6--7-----2----------0--------0-2-3-------3-----3------------3--3-----3---| -4-----4--2-------2--0-----0--0-2-2-----2-----------2-2---2--4--------3-3-| -6--7-----4----4-----0--0---------0--4------------4---4---4--4--------5---| -4--4--------4------------------------------2---2------------2----2---5---| ----------2----2-----3-----3------------------------2-----------------3---| -2-0-0--------------------------9----9----------------7-9--7-9--5------5-| -0-----3-3-0--2--3--------10-12---12---10--------10---9----9----5----5---| -0---------------------11----12---12---11-----11-----10---10----6--6-----| -0---------------0--12-----------------12--12----------------------------| -0-----------------------------------------------------------------------| ----------------------------------------------------------------5--------| -5--3--3--2--2-------2--5--3--3--2-----------0----0-------------------0-----| -5-----------4----4-----4-----------7\4-------------------------------2-----| -------------4--4-------2---------------4\2--1--1---1--2--2--1--1--0--2---1-| -------------------------------------------------------2-----2-----2------2-| -3-----------2-----------------------------------------4-----2-----1------2-| ---------------------------------------------0------------------------2---0-| Lyrics: Is this the real life Is this just fantasy Caught in a landslide No escape from reality F#m Open your eyes A D Look up to the skies and see .

carry on as if nothing really matters. if I'm not back again this time tomorrow. A F#m Goodbye everybody. C#/G# Bb Bbdim Ab Db/Ab Ab Abdim I see a little silhouetto of a man Ab Db/Ab Ab Db/Ab Ab Abdim Ab Db/Ab Ab Scaramouche Scaramouche will you do the fandango? C/G G C/G G C/G Db7 Ab Thunder bolts and lightening very very frightening me Galileo Galileo Galileo Galileofigaro Magnifico oh oh oh Bb A Ab A Bb A Ab A I'm just a poor boy nobody loves me G/D D Ddim D G/D D Ddim D He's just a poor boy. D A/C# Bm Em B/D# G/D C#dim A A6 A7 Mama Ooo I don't want to die. I need no sympathy Bb A Ab A Bb A Ab A easy come. pulled my trigger. easy go. little high. body's achin' all the time. A Mama F#m just killed a man Bm Bm7 E put a gun against his head. Bm F#5/A# D/A Bbdim Amaj7 D/A Gotta leave you all behind and face the truth. doesn't really matter to me to me. little low D A/C# Cdim E7/B E7/D Bb Any way the wind blows.Bm7 E I'm just a poor boy. I sometimes wish I'd never been born at all. now he's dead A F#m Bm F#5/A# D/A Bbdim Mama life had just begun. I've got to go. from a poor family G D/F# E7 A spare him his life from this monstrosity G/D D Bdim A7sus Bb A Ab A Bb Easy come easy go will A5 D A5 D Asus A Bismillah NO. A/C# Bm Gm D Carry on. but now I've gone and thrown it all away D A/C# Em B/D# G/D C#dim A A6 A7 D Mama Oooo didn't mean to make you cry. my time has come Bm Bm7 E Sent shivers down my spine. A F#m Too late. we will Let him A you let Asus not let Adim me go? A you go go A D A Asus A Bismillah we will not let A D A Asus A Bismillah we will not let Asus A Asus A will not let you go let let me go oh oh oh oh oh Ab Db C F A5 D5 no no no no no no no Oh D G C#7 Beelzebub has a devil put Asus A you go Asus A you go me go Let him go Let him go A Asus A not let you Asus will mamamia mamamia F#m A5 aside for me D A D mamamia let for me go me for me A go .

anyone can see Bm Gm G/A D nothing really matters. nothing really matters to me Ddim A/C# Cmaj13 B Cdim B E A E Edim B7sus Any way the wind blows G/D Eb .just gotta get right outta here Bm F#m Bm F#m Nothing really matters.D F So you think you can stone me and spit in my eye So you think you can love me and leave to die Oh Baby .Can't do this to me baby Just gotta get out .