You are on page 1of 54

You're All I Need

Submitted by: paramore_fans@yahoo.com


Key: D
Tuning: Standard EADGBe
Chords used:
D xx0232
D/F# - 2x023x
Em 022000
A x02220
G 320033
Bm x24432
Am x02210
A/C# - x476xx
F#/Bb - x143xx

just wondering why


A
G
D
she doesn't know
A
G
D
G
she doesn't know
A
she doesn't know
Chorus 2:
D
D/F#
G
you're all I need beside me girl
A
D
you're all I need to turn my world
D/F#
Em
you're all I want inside my heart
A
G
A
you're all I need when we're apart

Intro: D/F#--G-- x2, D/F#--G-A-D-Verse 1:


D/F#
G
I know that she's waiting
Em
A
for me to say forever
D/F#
G
I know that I sometimes
Em
A
just don't know how to tell her
D/F#
G
I want to hold and kiss her
Em
A
G
D
give her my love, make her believe
A
G
D
she doesn't know
A
G
D
G A
she doesn't know
Chorus 1:
D
D/F#
G
you're all I need beside me girl
A
D
you're all I need to turn my world
D/F#
Em
you're all I want inside my heart
A
G
you're all I need when we're apart
you're all that I need yeah
(Repeat Intro)
[ Tab from:
http://www.guitaretab.com/w/whitelion/199353.html ]
Verse 2:
D/F#
G
I know that she's always
Em
A
there when I need her loving
D/F#
G
I know that I never
Em
A
told her how much I love her
D/F#
G
I see her face before me
Em
A I look in her eyes
G
D

Bridge:
Bm
A
G
say say that you'll be there
D/F# Em
whenever I reach out to
D
A
feel your hand in mine
D
D/F#
G
stay stay within my heart
D/F#
Em
whenever I'm alone I
D
A
know that you are there
oooooh
Guitar Solo:
G--A--D-A/C#-Bm-A-G--A--F#/Bb--Bm--G-A(hold)
Chorus 3:
D
D/F#
G
you're all I need beside me girl
A
D
you're all I need to turn my world
D/F#
Em
you're all I want inside my heart
A
G
you're all I need when we're apart
D
D/F#
G
you're all I need beside me girl
A
D
you're all I need to turn my world
D/F#
Em
you're all I want inside my heart
A
G
A
you're all I need when we're apart
Outro:
D
all that I
G
for you to
D
all that I

Am
need is
Gm
believe
A(hold) D(hold)
need is YOU

SHE WILL BE LOVED


*-Capo 1st fret-*
Chords Used
Bm- X2443X
A- X02220
D5- X0023X
G5- 3X003X
The reason for the mutes on most of
the chords are because that's how
the song is played.
Bm
A
Beauty queen of only eighteen
Bm
A
She had some trouble with herself
Bm
A
He was always there to help her
Bm
A
She always belonged to someone else
Bm
A
I drove for miles and miles
Bm
A
And wound up at your door
Bm
A
I've had you so many times but
Bm
A
somehow I want more
D5
A
I don't mind spending everyday
Bm
G5
Out on your corner in the pouring
rain
D5
A
Look for the girl with the broken
smile
Bm
G5
Ask her if she wants to stay awhile
D5
A
And she will be loved
Bm
G
She will be loved
(Repeat same rythm)
Tap on my window knock on my door
I want to make you feel beautiful
I know I tend to get insecure
It doesn't matter anymore
It's not always rainbows and
butterflies
It's compromise that moves us along

My heart is full and my door's


always open
You can come anytime you want
I don't mind spending everyday
Out on your corner in the pouring
rain
Look for the girl with the broken
smile
Ask her if she wants to stay awhile
And she will be loved
She will be loved
I know where you hide
Alone in your car
Know all of the things that make
you who you are
I know that goodbye means nothing
at all
Comes back and begs me to catch her
every time she fall

COLLIDE-HOWIE DAY

CAPO 4
G- 32xx33
Dsus2- 2xx233
Em7- x22x33
Cadd4- x32x33
G
Dsus2
The dawn is breaking
Em7
Cadd4
A light shining through
G
Dsus2
You're barely waking
Em7
Cadd4
And I'm tangled up in you
Yeah...
G
Doo Doo Doo Doo
Dsus2
Doo Doo Doo Doo
Em7
Doo Doo Doo Doo
Cadd4
Doo Doo Doo Doo
G
Dsus2
I'm open, your closed
Em7
Cadd4
Where I follow you'll go
G
Dsus
Em7
I worry I wont see your face
Cadd4
Light up again
G
Dsus2
Even the best fall down sometime
Em7
Cadd4
Even the wrong words seem to rhyme
G
Dsus2
Out the doubt that fills my mind
Em7
I somehow find
You and I
G
Collide
Doo Doo Doo Doo
Dsus2
Doo Doo Doo Doo
Em7
Doo Doo Doo Doo

Cadd4
Doo Doo Doo Doo
G
Dsus2
I'm quiet, you know
Em7
Cadd4
You make a first impression
G
Dsus2
Em7
Cadd4
I've found I'm scared to know I'm
always on your mind
G
Dsus2
Even the best fall down sometimes
Em7
Cadd4
Even the stars refuse to shine
G
Dsus2
Out of the back you fall in time
Em7
Cadd4
I somehow find You and I Collide
Em7 G Cadd4
Don't stop here
Cadd4 Em7 Dsus2
I lost my place
Cadd4 Em7 G
I'm close behind
G
Dsus2
Well even the best fall down
sometimes
Em7
Cadd4
Even the wrong words seem to rhyme
G
Dsus2
Out of the doubt that fills your
mind
Em7
Cadd4
You finally find you and I collide
G
Dsus2
Finally find you and I collide
Em7
Cadd4
G
You finally find you and I collide

SOMEBODYS ME
Capo: fret 1
(G)
(C)
E|------------------------------0-0-0-0-0-0-----------|
B|------------------------------1-1-1-1-0-1-----------|
G|-----2-0h2p0-2--2h4-2h0-------0-0-0-0-0-0-----------|
D|-----0-0-0---0--0---0---------2-2-2-2-2-2-----------|
A|-----0-0-0---0--0---0---------3-3-3-3-3-3-----------|
E|--3---------------------------0-0-0-0-0-0-----------|
A
D
A
You, do you remember me?
D
A
Like I remember you?
D
Do you spend your life
E
Going back in your mind to that
time?
A
D
A
Cause I, I walk the streets alone
D
A
I hate being on my own
D
And everyone can see that
E
I really fell
E
And I'm going through hell
(E)
Thinking about you with somebody
else
A
Somebody wants you,
E
somebody needs you
D
A
Somebody dreams about you every
single night
(A)
Somebody can't breathe,
E
without you it's lonely
D
Somebody hopes
A
that one day you will see
(A)
That somebody's me, that somebody's
me, yeah
How, how did we go wrong?
It was so good and now it's gone

-- 2x

And I pray at night that our paths


soon will cross
And what we had isn't lost
Cause you're always right here in
my thoughts
Somebody wants you, somebody needs
you
Somebody dreams about you every
single night
Somebody can?t breathe, without you
it?s lonely
Somebody hopes that one day you
will see
That somebody's me, oh, yeah
A
You will always be in my life
E
even if I'm not in your life
A
E
Cause you're in my memory
A
D
You, when you remember me
A
D
And before you set me free,
E
A
oh, listen please
Somebody wants you, somebody needs
you
Somebody dreams about you every
single night
Somebody can?t breathe, without you
it?s lonely
Somebody hopes that someday you
will see
Somebody's me, that somebody's me
That somebody's me, that somebody's
me, oh, yeah

YOUR GUARDIAN ANGEL


The Red Jumpsuit Apparatus
Chords: G
D

320033
xx0232

Em 022000
C
x32013
Dadd11 x54035
Intro

--------------------------------------------------------------------------------------------|
--------------------------------------------------------------------------------------------|
--------------------------------------------------------------------------------------------|
--------------------------------------------------------------------------------------------|
-----------------------------------------------------------------------5-3-2----------------|
-----3-3333-55-3-3333-55-2-2222-22-2-222-----0-000-0h222-2h333-3h555-3-3333-3333-5-5555-555-|

G
D
Em
When I see your smile
C
G
D
Em
C
Tears run down my face I can't
replace
G
D
And now that I'm stronger I've
figured out
Em
C
How this world turns cold and
breaks through my soul
G
D
Em
C
And I know I'll find deep inside me
I can be the one
G
D
I will never let you fall
Em
C
I'll stand up with you forever
G
D
I'll be there for you through it
all
Em
C
G
Even if saving you sends me to
heaven
D
Em
C
It's ok. It's ok. It's ok.
G
Seasons are changing
D
And waves are crashing
Em
C
And stars are falling all for us
G
D
Days grow longer and nights grow
shorter
Em
C
I can show you I'll be the one

G
D
I will never let you fall
Em
C
I'll stand up with you forever
G
D
I'll be there for you through it
all
Em
C
Even if saving you sends me to
heaven
G
D
Em
Cuz you're my, you're my, my true
love, my whole heart
C
Dadd11
Please don't throw that away
G
D
Cuz I'm here for you
Em
Please don't walk away,
C
Dadd11
Please tell me you'll stay, stay
G
Dadd11

Em

G
D
Use me as you will
Em
C
Pull my strings just for a thrill
G
D
And I know I'll be ok
Em
C
Though my skies are turning gray
G
D
I will never let you fall
Em
C
I'll stand up with you forever
G
D
I'll be there for you through it
all
Em
C
Even if saving you sends me to
heaven.

Title: When I Was Your Man


[Intro]
D7
D7

Dm
Dm

C
C

Em

[Verse 1]
Am
C
Dm
Same bed, but it feels just a little bit
bigger now
G
G7
C
Em
Our song on the radio, but it don't sound
the same
Am
C
Dm
When our friends talk about you all it does
is just tear me down
G
C
Cause my heart breaks a little when I hear
your name
[Refrain]
Em
Am
Em
It all just sounds like ooh, ooh, oooh, oooh
Bb
C
Mmm too young, too dumb to realize
[Chorus]
G
F
G
C
That I should've bought you flowers and held
your hand
F
G
C
Shoulda gave you all my hours when I had the
chance
F
G
Am
Take you to every party cause all you wanted
to do was dance
D7
F
Fm
C
Em
Now my baby's dancing, but she's dancing
with another man
[Verse 2]
Am
C
Dm
My pride, my ego, my needs and my selfish
ways
G
G7
C
Em
Caused a good strong woman like you to walk
out my life
Am
C
Dm
Now I'll never, never get to clean up the
mess I made ooh
G
C
And that haunts me every time I close my
eyes
[Refrain]
Em
Am
Em
It all just sounds like ooh, ooh, oooh, oooh
Bb
C
Mmm too young, too dumb to realize

[Chorus]
G
F
G
C
That I should've bought you flowers and held
your hand
F
G
C
Shoulda gave you all my hours when I had the
chance
F
G
Am
Take you to every party cause all you wanted
to do was dance
D7
F
Fm
C
Now my baby's dancing, but she's dancing
with another man
[Bridge]
F
G
C G Am Em
Although it hurts I'll be the first to say
that I was wrong
D7
Oh, I know I'm probably much too late
Dm
To try and apologize for my mistakes
G
But I just want you to know
[Chorus]
F
G
C
I hope he buys you flowers, I hope he holds
your hand
F
G
C
Give you all his hours when he has the
chance
F
G
Am
Take you to every party cause I remember how
much you love to dance
D7
F
Fm
C
Do all the things I should've done when I
was your man
D7
F
Fm
C
Do all the things I should've done when I
was your man

IRIS GOOGOO DOLLS


Bm?
Bm9
G
G7m
D
Em7
Bm
A9

=
=
=
=
=
=
=
=

7X0707
7X0607
320033
3X0032
XX0232
022030
X24432
X02200

Intro : (X2)
Verse 3 :
Bm? Bm9 G G7m

Verse 1 :
D
Em7
G
And I'd give up forever to touch you
Bm
A9
G
Cause I know that you feel me somehow
D
Em7
G
You're the closest to heaven that I'll
never be
Bm
A9
G
And I don't want to go home right now
Verse 2 :
D
Em7
G
And all I can taste is this moment
Bm
A9
G
And all I can breath is your life
D
Em7
G
And sooner or later it's over
Bm
A9
G
I just don't want to miss you tonight
Chorus :
[ Tab from:
http://www.guitaretab.com/g/goo-goodolls/286961.html ]
Bm
A9
G
And I don't want the world to see me
Bm
A9
G
Cause I don't think that they'd
understand
Bm
A9
G
When everything's made to be broken
Bm
A9
G
I just want you to know who I am

D
Em7
G
And you can't fight the tears that
ain't coming
Bm
A9
G
Or the moment of truth in your life
D
Em7
G
When everything feels like movies
Bm
A9
Yeah, you bleed just to know you're
alive
Chorus :
Bm
A9
G
And I don't want the world to see me
Bm
A9
G
Cause I don't think that they'd
understand
Bm
A9
G
When everything's made to be broken
Bm
A9
G
I just want you to know who I am

WAKE UP
F
C
G
|----3-------3----------------------|
|------1-------1---------1-------3--|
|--------0-------0-----0------------|
|--------------------2-------0------|
|------------------3-----------2----|
|--1-------1---------------3--------|
That G I'm not to positive on those
notes being picked. I couldn't
really get the exact
ones with all the layers going, but
it works. If you get a more correct
way just comment
it and I'll change it giving you
credit of course.
VERSE 1
F
C
G
I'm goning to right this plain out
of your life again,
F
C
G
I wish that I could stay but you
argue,
F
C
G
And more than this I wish you could
have seen my face,
F
C
G
In backseats starring out the
window,
F
C
G
I'll do anything for you,
F
C
G
Kill anyone for you,
F
C
So leave yourself intact,
G
F
Cause I will be coming back,
C
In a phrase to cut theses lips,
G
I love you.
CHORUS
C
F
The morning will come,
Dm
In the press of every kiss,
F
With your head upon my chest,
C
F
Where I will annoy you,
Dm

With every waking breath,


F
Untill you decide to wake up.
VERSE 2
F
C
G
I've learned through hope of faith
in the curves around your face,
F
C
G
That I'm the one you hold forever,
F
C
G
If morning never comes for either
one of us,
F
C
G
Then this I pray to you where ever,
F
C
G
I'll do anything for you,
F
C
G
This story is for you,
F
C
G
I'd do anything for you,
F
C
G
Kill anyone for you,
F
C
So leave yourself intact,
G
F
Cause I won't be coming back,
C
In a phrase to cut theses lips,
G
I loved you.
CHORUS
C
F
The morning will come,
Dm
In the press of every kiss,
F
With your head upon my chest,
C
F
Where I will annoy you,
Dm
With every waking breath,
F
Untill you decide to wake up.

Terrified
Katharine McPhee ft. Zachary Levi
Capo:3rd Fret
C
G
Am
F
You by the light is the greatest find
C
G
Am
F
In a world full of wrong you're the
thing that's right
C
G
Am
F
Finally made it through the lonely to
the other side
Chorus:
C
G
You said it again my heart's in motion
Am
F
every word feels like a shooting star
C
G
I'm at the edge of my emotions
Am
F
Watchin' the shadows burnin' in the
dark
C
G
And I'm in love
Am
F
And I'm terrified
C
For the first time
G
And the last time
Am F
C G Am F
In my only life
C
G
Am
F
This could be good it's already better
than that
C
G
Am
F
And nothing's worse than knowing you're
holding back
C
G
Am
F
I could be all that you needed if you
let me try
Chorus:
C
G
You said it again my heart's in motion
Am
F
every word feels like a shooting star
C
G
I'm at the edge of my emotions
Am
F
Watchin' the shadows burnin' in the
dark
C
G
And I'm in love
Am
F
And I'm terrified

C
For the first time
G
And the last time
Am F
In my only
Bridge:
Am
G
F
I only said it 'Cause I mean it
Am
G
F
I only mean it 'Cause it's true
Am
G
F
So don't you doubt What i've been
dreaming
Am
G
Cause it fills me up it holds me close
F
whenever I'm without you
Chorus:
C
G
You said it again my heart's in motion
Am
F
every word feels like a shooting star
C
G
I'm at the edge of my emotions
Am
F
Watchin' the shadows burnin' in the
dark
C
G
And I'm in love
Am
F
And I'm terrified
C
For the first time
G
And the last time
Am F
In my only
C G
Am
F
life... life...
C G
life...
Am
F
C
In my only life...

Think Of Laura
Chords Being Used----------F
C
Dm7
Bb
D
A
Bm
B
Em
G
e|--8-------8-------5-------6-------5-------5------7------7------7------3--|
B|--10------8-------6-------6-------7-------5------7------7------8------3--|
G|--10------9-------5-------7-------7-------6------7------8------9------4--|
D|--10------10------7-------8-------7-------7------9------9------9------5--|
A|--8-------10------5-------8-------5-------7------9------9------7------5--|
E|--x-------8-------x-------6-------x-------5------7------7------x------3--|

Intro:
F
C
Dm7
Hey Laura, Laura hmmmmm
Bb
C
C
Hey Laura, Laura
I
F
C
Dm7
Every once in a while I'd see her smile
Bb
F
And she'd turn my day around
F
C
Dm7
A girl with those eyes could stared
through the lies
Bb
C
See what your heart was saying
CHORUS
D
A
Bm
B
Think of Laura but laugh, don't cry
Em
A
D
A
I know she'd want it that way hey hey
D
A
Bm
B
And when you think of Laura, well,
laugh don't cry
Em
A
D
I know she'd want it that way
II (SAME CHORDS)
A friend of a friend, a friend till the
end
That's the kind of girl she was
Taken away so young
Taken away without a warning
CHORUS
D
A
Bm B
Think of Laura but laugh, don't cry
Em
A
D
A
I know she'd want it that way hey hey
D
A
Bm
B
And when you think of Laura, but, laugh
don't cry
Em
A
D
A A
I know she'd want it that way

BRIDGE:
Bm
Em A
D
I know you and you're here
G
A
D A A
In every day we live
Bm
Em
A
D
I know her and was she's here
G
A
I could feel her when I sing

A A

III(SAME CHORDS)
Hey Laura, where are you now?
Are you far away from here?
I don't think so, I think you're here
Taking our tears away
CHORUS
D
A
Bm B
Think of Laura but laugh, don't cry
Em
A
D
A
I know she'd want it that way hey hey
D
A
Bm
B
And when you think of Laura, but, laugh
don't cry
Em
A
D
A
I know she'd want it that way hey yey
Em
A
D
Well, I know she'd want it that way
A
Bm
B
Hey Laura, hey Laura
Em
A
D
I know, she'd want it that way
A
Bm
B
Hey Laura, hey Laura
Em
A
D
I know you want it that way
A
Hey Laura

ORDINARY SONG
Intro:

C--Am--Dm--G-C--Am--Dm--G--G--

Verse 1:
C
Am
Just an ordinary song
Dm
G
To a special girl like you
Dm
From a simple guy
G
C-- G-That's so in love with you

C
Am
I don't even have the looks
Dm
G
To make you glance my way
Dm
The clothes i wear
G
C-- C7-They just seem so absurd
Chorus 2:

Verse 2:
C
Am
I may not have much to show
Dm
G
No diamonds that glow
Dm
No limosines
G
C-- C7-To take you where you go.

F
G
But deep inside of me is you
Em7
Am
You give life to what I do
F
G
All those years may see you through
Em7
Am
Still i'll be waiting here for you
G
F
If you have time
G
Please lend an ear
F
G
To this ordinary song

Chorus 1:

Interlude: C--G--

F
G
But if you give to find youself
Em7
Am
Fight in all the games you play
F
G
When the world seems so unfair
Em7
Am
You can count on me to stay
G
F
Just take sometime
G
And lend an ear
F
G
To this ordinary song
Interlude: C--G-Verse 2:
C
Am
Just an ordinary song
Dm
G
To a special girl like you
Dm
From a simple guy
G
C-- G-That's so in love with you

Verse 3:
C
Am
Just an ordinary song
Dm
G
To a special girl like you
Dm
From a simple guy
G
C--Am--Dm-G--G--Cpause:

Song: Panahon na naman


Chords:
G320033
Cx32010
G9?- 320030
C9?- x32030
Em022000
Em7?- 022030
Dxx0232
Dsus- xx0233
D9xx0230
D/F#- 200232
Ebx65343
Fx87565
Intro:
e-3-3-3---0-0-0---0-0-0-3-0----0-0-0----0-0-0---2-3-2-0-----0-0--B-3-3-3---1-1-1---3-3-3-3-3----1-3-1----0-0-0---3-3-3-3-----1-1--G-0-0-0---0-0-0---0-0-0-0-0----0-0-0----0-0-0---2-2-2-2-----0-0--D-0-0-0---2-2-2---0-0-0-0-0----2-2-2----2-2-2---0-0-0-0-----2-2--A-2-------3-------2------------3-3-3----2-------------------3-3--E-3---------------3---------------------0------------------------G
C
G9
G G9
C-C9-C
Em
D-Dsus-D-D9
C
Bass line:
A-3-2-0------------------E------3-----------------or
G-C-G-C-Em-D-C (/C,/B,/A,/G)
(do intro chords)
May, may naririnig akong bagong awitin,
Bagong awitin
At may may naririnig akong bagong
sigaw,
Eh, ikaw?
Refrain:
D
C
G
Hindi mo ba namamalayan
D
C
G
Wala ka bang nararamdamaAAAAn
D
C
Em
D
C
Ika ng hangin na humahalik sa atin
Chorus:
G-D/F#
Panahon na naman
Em-D
Ng pag-ibig
C-Eb-F
Panahon na naman
G
Ahah

G-D/F#
Panahon na naman
Em-D
Ng pag-ibig
C-Eb-F
Gumisng ka,
G
tara na

Interlude:
e------------------------------------B-8h9-9--3h5-3-1h3-1-----------------G--------------------0h2-0------------

2X

(do stanza 1 chords)


masdang maigi ang mga mata ng bawat tao
nakasilip ang isang bagong saya
at pa-ibig na dakilang matagal ng
nawala
kumusta na
nariyan ka lang pala
refrain
solo:

e-3--4-4-3-4-6-4-3-8--8-8-8-9-8----------------------------|
B------------------------------9-9-8--6-7-8-7-6------------|
G----------------------------------------------------------|
D----------------------------------------------------------|
A----------------------------------------------------------|
E----------------------------------------------------------|
2X

chorus (Acapella)

PAG DATING NG PANHON


INTRO:
------------------------------------------------------0---------0-----------------------1--3--1--------------1--------1----------------2-------------2-------------2--------2----------2-----------------------------------------------0--------------------------0-----------------------------------------------E
Am
------------------------------------------------------0---------0-----------------------1--3--1--------------1--------1----------------2-------------2-------------2--------2----------2-----------------------------------------------0--------------------------0-----------------------------------------------E
Am
VERSE:
----------------0------------------------------------------------------------0--------------------0----------------5---------------------2--------4----------2------------1--------2-----------4----4---------------2--------4--------1------1
----------2-------------------6---------6---------2----------4--------2---------------2--------------------4-------------------0---------2---------2--------------0--------------------------------------------------------------0-----------E
C#m7
A
B
E
Alam ko
hindi mo pansin narito
lang
ako
---------------------------------------------------------------------------------------------5------------------------------------4-----------5-------5---4-------------4------4----------------3--4---------4-----------5-------4------------------6------------6----------4-------------4-----------5-------4-----------------4------------------------4-------------2-----------3-------2------------------------------------------2---------------------------------------------------C#m7
F#m
B
C
B
Naghihintay
lagi kita
Umaasa kahit di man ngayon
--------------0--------------------2------------------------------------------------------2----2--------------------2---------------5-4-------------------------------2---------2------------3-------3----------4-------4--------44-5-------------2----------------------4------------------4-----------------4---------------0----------------------4------------------2------------------2--------------------------------------2------------------------------------------------------A
F#
B
B
Mapapansin mo
rin
mapapapansin mo rin
VERSE 2: repeat

CHORUS:
------------0-------------------2--------------------4--------------------4------------------0--------------4----4-------------------4---------------5----5-----------1------1----------4--------4----------4--------4----------6---------6--------2-----------------4-------------------6-------------------6------------------2-----------------2-------------------6-------------------4------------------0-------------------------------------4---------------------------------------

E
B
Abm
C#m
Pagdating ng
Panahon baka
ikaw rin at
ako
-------------------------------------------------------2---------------------------------------2---------4------------5-----------------2-------------5-4-------------------2---------4------4-----6------------3-------3---------4----------------------2---------4------6-----6-----------4------------------4---------------------0----------2------6-----4-----------4-----------------2-----------------------------------------4------------------2---------------------------------A
B
Abm
C#m
F#
B
Baka tibok ng puso koy
maging
tibok ng puso
mo
------------0-------------------0--------------------4--------------------4------------------0---------------4---4-------------------4---------------5-----5----------1-------1----------4--------4---------4--------4----------6----------6-------2-----------------4-------------------6-------------------6------------------2-----------------2-------------------6-------------------4------------------0-------------------------------------4--------------------------------------E
B
Abm
C#m
S ana ngay
mangyari yun kahit di palang
ngayon
--------------------------------------------------------2--------------------------------------2---------4------------5-----------------2-------------5---------------------2---------4------4-----6------------3-------3---------4----------------------2---------4------6-----6-----------4------------------4---------------------0----------2------6-----4-----------4-----------------2-----------------------------------------4------------------2---------------------------------A
B
Abm
C#m
F#
B
Sana
ngay mahalin morin pag dating
nga
--------------0-----------------------------------------------0---------------------------------------1-------1----------------------------------2-------------------------------------------2-------------------------------------------0------------------------------------------E
Panahon..
BRIDGE
-------------0-----------------0------------4----------------4---------------------------2----2------------1----------------4-----------5----5------------------------1--------1--------2-----------4-------4------6---------6---------------------2------------------2-----------6--------------6------------------------------0------------------0-----------6--------------4--------------------------------------------------------------4--------------------------------------------AM7
Am
Abm
C#m
Di pa siguro
bukas
Di parin
ngayon
------------------2-----------------2-------------------2------------------3-----------------------2-----------------2--------------4----4-------------5----5---------------3------3---------3-------3----------4---------4--------5--------5------------4---------4------4------------------4-------------------5--------------------4----------------4------------------2-------------------3--------------------2----------------2-----------------------------------------------------F#
F#
B
C
Malay mo
Balangaaraw
Dumating din
yun(1fret up)
CHUROS: new chords for chorus
------------1-------------------3--------------------5------------------5--------------------1--------------5----5--------------------5-------------6---6-------------2------2----------5--------5---------5----------5--------7--------7----------3-----------------5-------------------7-------------------7------------------3-----------------3-------------------7-------------------5------------------1-------------------------------------5---------------------------------------

F
C
Am
Dm
Pagdating ng
Panahon baka
ikaw rin at
ako
--------------------------------------------------------3--------------------------------------3---------5------------6-----------------3-------------6-5-------------------3---------5------5-----7------------4-------4---------5----------------------3---------5------7-----7-----------5------------------5---------------------1----------3------7-----5-----------5-----------------3-----------------------------------------5---------------3------------------------------------Bb
C
Am
Dm
G
C
Baka tibok ng puso koy
maging
tibok ng puso
mo
------------1------------------3--------------------5--------------------5-------------------1--------------5---5--------------------5---------------6---6------------2------2----------5-------5-----------5--------5----------7--------7---------3-----------------5-------------------7-------------------7------------------3-----------------3-------------------7-------------------5------------------1-------------------------------------5---------------------------------------F
C
Am
Dm
Sana ngay
mangyari yun kahit di palang
ngayon
-----------------------------------------------------------3-----------------------------------3---------5-----------------6---------------3----------------5---------------3---------5------5----------7-----------4-------4-----------5----------------3---------5------7----------7-----------5-------------------5---------------1----------3------7----------5-----------5-------------------3----------------------------------5-----------------------3----------------------------Bb
C
Am
Dm
G
C
Sana
ngay mahalin mo rin
pag dating
nga
-------------1-----------------------------------1---------------------------------------------1--------------2--4-2-------------1----------2-4-2-----------------------2-------2---------3----------------2-----2------3---------------------------3------------------3-----------------3-------------3-------------------------3------------------1-----------------3-------------1-------------------------1-------------------------------------1-------------------------------------F
Panahon..
---1---------------------------1---------------------------2---------------------------3---------------------------3---------------------------1------------------------F
(strum down) break

I WONT GIVE UP
Tuning: standard
Capo: 2nd fret
Chords used:
G D B Asus2 Em C E
e|-3-2-2-0-----0--0-0-----------------------------------------------|
B|-3-3-3-0-----0--1-0-----------------------------------------------|
G|-4-2-4-2-----0--0-1-----------------------------------------------|
D|-5-0-4-2-----2--2-2-----------------------------------------------|
A|-5---2-0-----2--3-2-----------------------------------------------|
E|-3-----------0----0-----------------------------------------------|
Intro:
e|------------------------------------------------------------------|
B|-------------------------------------------------------------0h2--|
G|---------------4-4---2-2---2-2--------------------2-2-2--2---2----|
D|0-0-0---2-4----5-5---0-0---0-0--x3---0-0-0--2-4--2-2-2--2--------|
A|---------------5---5-----0------------------------0----0---0------|
E|------------------------------------------------------------------|
e|--------------------------------------------------------|
B|--------------------------------------------------------|
G|-2------------------------------------------------------|
D|-2------------------------------------------------------|x2
A|---0----------------------------------------------------|
E|--------------------------------------------------------|
Verse:
e|------------------------------------------------------------------|
B|-------------------------------------------------------------0h2--|
G|---------------4-4---2-2---2-2--------------------2-2-2--2---2----|
D|0-0-0---2-4----5-5---0-0---0-0--x3---0-0-0--2-4--2-2-2--2--------|
A|---------------5---5-----0------------------------0----0---0------|
E|------------------------------------------------------------------|
e|--------------------------------------------------------|
B|--------------------------------------------------------|
G|-2------------------------------------------------------|
D|-2------------------------------------------------------| x2
A|---0----------------------------------------------------|
E|--------------------------------------------------------|
Chorus: G, D, B, Asus2, G, D, Asus2
Verse: x1
Chorus
Bridge: Em, Asus2, Em, Asus2, C, E, C, E, D
Chorus
Verse:x1
Chorus: x3
Outro: G, D, G, D, G and end on
This is how I play it in the video but Ive found a different way to play the verses and
intro that sounds a bit closer to what hes playing:
e|------------------------------------------------------------------|
B|------------------------------------------3-3---3-3--2------------|
G|-----------4-4---2-2---2------------------2----------2------------|
D|-0-0-0-2-4-5-----0---------x3--0-0-4-2-0--0---0----0--------------|
A|-----------5---5-----0--------------------------------------------|
E|------------------------------------------------------------------|
e|------------------------------------------------------------------|
B|------------------------------------------------------------------|
G|------------------------------------------------------------------|
D|------------------------------------------------------------------|
A|------------------------------------------------------------------|
E|------------------------------------------------------------------|

When I look into your eyes


It's like watching the night sky
Or a beautiful sunrise
There's so much they hold
And just like them old stars
I see that you've come so far
To be right where you are
How old is your soul?
I won't give up on us
Even if the skies get rough
I'm giving you all my love
I'm still looking up
And when you're needing your space
too do some navigating
I'll be here patiently waiting
To see what you find
'Cause even the stars they burn
Some even fall to the earth
We've got a lot to learn
God knows we're worth it
noo i wont give up
I don't wanna be someone who walks
away so easily
Im here to stay and make the difference
that i can make
Our differences they do a lot to teach us

how to use the tools and gifts


We got yeah we got a lot at stake
And in the end, you're still my friend at
least we did intend
For us to work we didn't break, we didn't
burn
We had to learn, how to bend without the
world caving in
I had to learn what i got, and what i'm
not
And who i am
I won't give up on us
Even if the skies get rough
I'm giving you all my love
I'm still looking up
I'm still looking up
I won't give up (No I'm not) on us (Giving
up)
God knows i'm tough enough (I am
tough) (I am loved)
We got a lot (We're alive) to learn (We
are loved)
God knows we're worth it (And we're
worth it)
I won't give up on us
Even if the skies get rough
I'm giving you all my love
I'm still looking up

Intro (capo 5)
e|----3--2-0------------|----3--2-0--0--2--3-2-0|----3--2-0------------|
b|---3------3----0--1-0-|---3------3------------|---3------3----0--1-0-|
g|-0----------2--------2|-0---------------------|-0----------2--------2|
d|-0--------------------|-0---------------------|-0--------------------|
a|-------0----2-2-------|-------0----3-3---2----|-------0----2-2-------|
E|------------------0---|-----------------------|------------------0---|
e|----------------------|---3-2--0-----------|---3-2--0---0------0-2|
b|----0---------------0-|-----------2-2----0-|-----------3----------|
g|-0-2--2--0-0-----0---2|-0-----------------2|-0----------------0---|
d|-0-----------2-4------|-------------0------|------------0-2-4--4--|
a|------3----2----------|-3------2-----------|-3------2-------------|
E|-----------------3----|----------------3---|----------------------|
e|-3-5-3-3-5-3-3-5-33-2-0-3-2--0----0--------|---3-2--0-----------|
b|--------------------------------3--------0-|-----------2-2----0-|
g|------------------------------------------2|-0-----------------2|
d|-------------------------------------------|-------------0------|
a|-3-----2-----0-----2----3----2-------------|-3------2-----------|
E|----------------------------------0--2-3-2-|----------------3---|
e|---3-2--0---0------0-2|-3-5-3-3-5-3-3-5-33-5-3-3-5-3-3-5-3-3-5-33-3-5|
b|-----------3----------|----------------------------------------------|
g|-0----------------0---|----------------------------------------------|
d|------------0-2-4--4--|----------------------------------------------|
a|-3------2-------------|-3-----2-----0-----2----3-----2-----0-----2---|
E|----------------------|----------------------------------------------|
Chorus
e|-7--3-8-7-5-7----3-5-7--3-8-7-5-7----3-5-7-5-3-2-3-5-3-2-0---0-2-3-2-0---3-2-3|
b|-----------------------------------------------------------3-----------3------|
g|------------------------------------------------------------------------------|
d|------------------------------------------------------------------------------|
a|------3--------3----------3--------------3-----2-----0-----------3-----2------|
E|-3----------3--------3----------0--2-----------------------3------------------|
e|----3--2-0------------|----3--2-0--0--2--3-2-0|----3--2-0------------|
b|---3------3----0--1-0-|---3------3------------|---3------3----0--1-0-|
g|-0----------2--------2|-0---------------------|-0----------2--------2|
d|-0--------------------|-0---------------------|-0--------------------|
a|-------0----2-2-------|-------0----3-3---2----|-------0----2-2-------|
E|------------------0---|-----------------------|------------------0---|
e|----------------------|---3-2--0-----------|---3-2--0---0------0-2|
b|----0---------------0-|-----------2-2----0-|-----------3----------|
g|-0-2--2--0-0-----0---2|-0-----------------2|-0----------------0---|
d|-0-----------2-4------|-------------0------|------------0-2-4--4--|
a|------3----2----------|-3------2-----------|-3------2-------------|
E|-----------------3----|----------------3---|----------------------|
e|-3-5-3-3-5-3-3-5-33-5-3-3-5-3-3-5-3-3-5-33-3-5|
b|----------------------------------------------|
g|----------------------------------------------|
d|----------------------------------------------|
a|-3-----2-----0-----2----3-----2-----0-----2---|
E|----------------------------------------------|

"Out Of My League"
it's her hair and her eyes today
that just simply take me away
and the feeling that i'm falling further in love
makes me shiver but in a good way
all the times i have sat and stared
as she thoughtfully thumbs through her hair
and she purses her lips, bats her eyes as she plays,
with me sitting there slack-jawed and nothing to say
coz i love her with all that i am
and my voice shakes along with my hands
coz shes all that I see and shes all that I need
and i'm out of my league once again
it's a masterful melody when she calls out my name to me
as the world spins around her she laughs, rolls her eyes
and i feel like i'm falling but it's no surprise
coz i love her with all that i am
and my voice shakes along with my hands
cause it's frightening to be swimming in this strange sea
but i'd rather be here than on land
yes she's all that i see and she's all that i need
and i'm out of my league once again
it's her hair and her eyes today
that just simply take me away
and the feeling that i'm falling further in love
makes me shiver but in a good way
all the times i have sat and stared
as she thoughtfully thumbs through her hair
and she purses her lips, bats her eyes as she plays,
with me sitting there slack-jawed and nothing to say
coz i love her with all that i am
and my voice shakes along with my hands
cause it's frightening to be swimming in this strange sea
but i'd rather be here than on land
yes she's all that i see and she's all that i need
and i'm out of my league once again

A Thousand Years - Christina Perri


capo: 3rd fret
Standard Tuning
chords used:
G D Em C Am
e|--3-3-3--3--3--------------------------------------------------------------|
B|--3-3-3--3--3--------------------------------------------------------------|
G|--0-2-0--0--0--------------------------------------------------------------|
D|--0-0-2--2--2--------------------------------------------------------------|
A|--2---2--2--0--------------------------------------------------------------|
E|--3---0--------------------------------------------------------------------|
Intro:G,D,Em,D,C,G,D
C
Heartbeats fast
Em
Colors and promises
How to be brave
D
C
How can I love when I'm afraid to fall
Em
But watching you stand alone
C
D
Am
All of my doubt suddenly goes away
somehow
Em
D
One step closer
G
I have died everyday waiting for you
C
D
Darling don't be afraid I have loved
you
C
For a thousand years
D
I love you for a thousand more
C
Time stands still
Em
Beauty in all she is
I will be brave
D
C
I will not let anything take away
Em
What's standing in front of me
Every breath
C
D
Every hour has come to this
Em
D
One step closer
G

Am

I have died everyday waiting for you


C
D
Darling don't be afraid I have loved
you
C
For a thousand years
D
I love you for a thousand more
G
And all along I believed I would find
you
Em
Time has brought your heart to me
D
C
I have loved you for a thousand years
D
I love you for a thousand more
G, Em, D, C, D, Am
Em
D
One step closer
Em
D
One step closer

Am

G
I have died everyday waiting for you
C
D
Darling don't be afraid I have loved
you
C
For a thousand years
D
I love you for a thousand more
G
And all along I believed I would find
you
Em
Time has brought your heart to me
D
C
I have loved you for a thousand years
D
I love you for a thousand more

Outro:C, Em, C, Em, D

end on C

Stay - Lisa Loeb


Tuning: Standard
Capo: 6th Fret
intro
e|-------5------------0--------------------------------------10----|
B|-----3-----------3p0------------5-----------7----------8---------|
G|---0-----------0-------------0-----------0-----------0---0-------|
D|-------------2---------------------------------------------------|
A|-----------------------------------------------------------------|
E|--------------------------5-------5/7-7-------7/8-8--------------|
e|-------5-----------------0---------------|
B|-----3----------------3p0----------------|
G|---0----------------0--------------------|
D|------------------2----------------------|
A|-----------------------------------------|
E|-----------------------------------------|
you say
i only hear what i want to
e|------------------------------------10----|
B|---------5-----------7----------8---------|
G|------0-----------0-----------0---0-------|
D|------------------------------------------|
A|------------------------------------------|
E|---5-------5/7-7-------7/8-8--------------|
e|-------5----------------------0-----------|
B|-----3---------------------3p0------------|
G|---0---------------------0----------------|
D|-----------------------2------------------|
A|------------------------------------------|
E|------------------------------------------|
and you say
i talk so all the time
e|------------------------------------10----|
B|---------5-----------7----------8---------|
G|------0-----------0-----------0---0-------|
D|------------------------------------------|
A|------------------------------------------|
E|---5-------5/7-7-------7/8-8--------------|
so...
Am7
and
Am7
and
Am7
and
Am7
now

G
i thought what i felt was simple
G
i thought that i don't belong
G
now that i am leaving
G
i know that i did something wrong
Am7
'cause i missed you

Cadd9
Am7
G
yeah, yeah i missed you

Am7

e|-------5--------------------0--------------|
B|-----3-------------------3p0---------------|
G|---0-------------------0-------------------|
D|---------------------2---------------------|
A|-------------------------------------------|
E|-------------------------------------------|
and you say
i only hear what i want to
e|-------------------------------------------|
B|-----------------5------------------7------|
G|-----------0-------------------0-----------|
D|-------------------------------------------|
A|-------------------------------------------|
E|----5----------------5/7-7-----------------|
i don't listen hard,
don't pay attention
e|-----------------------------10---10-10-10-|
B|-----------------8-----------------8--8--8-|
G|-----------0----------0------------0--0--0-|
D|-------------------------------------------|
A|-------------------------------------------|
E|--7/8---8--------------------------8--8--8-|
to the distance that you're running or
to anyone or anywhere
Am7
G
i don't understand if you really care
Am7
G
Am7
G
i'm only hearing negative, no no no (bad)
Am7
G
so i, i turned the radio on
Am7
i turned the radio up
G
and this woman was singing my song
Am7
G
The lover's in love and the others run away
Am7
G
lover is crying 'cause the other won't stay
Am7
G
some of us hover when we weep for the other
Am7
G
who was dying since the day they were born, well
Am7
G
Am7
G
well, this is not that, i think that i'm throwing but i'm thrown
Am7
and i thought i'd live forever
Cadd9
but now i'm not so sure you try to tell me that i'm clever
but that won't take me anyhow
e|-----------------------------------------10--|
B|----------5-------------7------------8-------|
G|-------0-------------0-------------0---0-----|
D|---------------------------------------------|
A|---------------------------------------------|

E|----5--------5/7--7----------7/8-8-----------|
or anywhere
with you
Am7
G
you said that i was naive and
Am7
G
i thought that i was strong no
Am7
G
i thought hey i can leave, i can leave oh
Am7
G
oh, now i know that i was wrong
Am7
'cause i missed you
Cadd9
Am7
G
Am7
G
yeah i missed you
Am7
you said "i caught you 'cause i want you
and one day i'll let you go"
Cadd9
you try to give away a keeper
or keep me 'cause you know you're just so
e|-------------------------------------10-----|
B|----------5----------------7----------8-----|
G|-------0----------------0-----------0---0---|
D|--------------------------------------------|
A|--------------------------------------------|
E|----5------------5/7-7-------7/8-8----------|
scared to lose
e|-----------------5-----------0--------------|
B|---------------3----------3p0---------------|
G|-------------0----------0-------------------|
D|----------------------2---------------------|
A|--------------------------------------------|
E|--------------------------------------------|
and you say,
"stay..."
e|-------------------------------------10-----|
B|----------5-----------7---------8-----------|
G|-------0-----------0----------0---0---------|
D|--------------------------------------------|
A|--------------------------------------------|
E|----5-------5/7-7-------7/8-8---------------|
e|-------5----------------0-------------------|
B|-----3---------------3p0--------------------|
G|---0---------------0------------------------|
D|-----------------2--------------------------|
A|--------------------------------------------|
E|--------------------------------------------|
you say,
i only hear what i want to
e|-------------------------------------10---------------------------|
B|----------5-----------7----------8--------------------------------|
G|-------0-----------0-----------0---0------------------------------|
D|------------------------------------------------------------------|
A|------------------------------------------------------------------|
E|----5-------5/7-7-------7/8-8-------------------------------------|
--------------------------------------------------------------------|

You and Me (Acoustic)


Lifehouse
CHORDS USED:
Cadd9
G
G/F#
Em
C/D
C?
e|----3-------3-------3-------3-------3-------3-----|
B|----3-------3-------3-------3-------3-------3-----|
G|----0-------0-------0-------0-------0-------0-----|
D|----2-------0-------0-------2-------0-------1-----|
A|----3-------2-------X-------2-------X-------X-----|
E|----X-------3-------2-------0-------X-------X-----|
Intro: G-C-G/F#-G/F#-Em-D-C
Verse 1:
G
Cadd9
What day is it?
G/F#
G/F#
And in what month
Em
D
Cadd9
This clock never seemed so alive.
G
Cadd9
I can't keep up
G/F#
G/F#
And I can't back down
Em
D
I've been losing
C
So much time.
Chorus 1:
G
Cadd9
Cause' it's you and me,
G/B
And all other people
Cadd9
G
With nothing to do,
Cadd9
D
Nothing to lose,
G
Cadd9
Cause' it's you and me,
G/B
And all other people,
Cadd9
G
And I don't know why,
Cadd9
D
Cadd9
I can't keep my eyes off of you.
Verse 2:Same As Verse 1
What other things
That I wanna say
Just aren't coming out right.
I'm tripping on words,
You've got my head spinning
I don't where to go from here.

Chorus 2:Same as Chorus 1


Cause' it's you and me,
And all other people
With nothing to do,
And nothing to prove
And it's you and me,
And all other people,
And I don't know why,
I can't keep my eyes off of you.
Bridge:
Em
Cadd9
Something about you now,
G
G/B
Cadd9
I can't quite figure out,
Em
D
Everything she does is beautiful,
Em
Cadd9 C/D Cm
C/D
Everything she does is right.
Chorus 3:
Cause' it's you and me,
And all other people
With nothing to do,
Nothing to lose,
And it's you and me,
And all other people,
And I don't know why,
I can't keep my eyes off of you...
and me,
And all other people
With nothing to do,
And nothing to prove
And it's you and me,
And all other people,
And I don't know why,
I can't keep my eyes off of you.
Last verse:
G
Cadd9
What day is it?
G/F#
G/F#

And in what month


Em
D

This clock never seemed so alive.


Cadd9

WAITING IN VAIN by Bob Marley


*INTRO:

Abmaj7

Dbmaj7

Abmaj7
I don't wanna wait in vain
I don't wanna wait in vain

x2

Dbmaj7
for your love
for your love

*VERSE 1:
Abmaj7
Dbmaj7
From the very first time I placed my eyes on you girl,
My heart said follow through
But I know now that I'm way down on your line
But the waiting feel is fine.
So don't treat me like a puppet on a string
Cause I know how to do my thing.
Don't talk to me, as if you think I'm dumb
I want to know when you're gonna come. See,
*CHORUS:
Abmaj7
Dbmaj7
I don't want to wait in vain for your love
I don't want to wait in vain for your love
I don't want to wait in vain for your love, cause if
Db
Eb
Cm7
Bbm7
summer is here, I'm still waiting there. (G string riff: (6~~8), D: 8)
Winter is here, and I'm still waiting there...
*SOLO:
Abmaj7

Abmaj7
Dbmaj7 x4
{4th time}Like I said,
Dbmaj7

e:----------------------------------------|-----------------------------------------|
B:----------------------------------9-11~~|~~~~~~~~~~~~~~~~~~~----------------------|
G:------------------------8--8s10---------|-----------------------------------------|
D:------------6--8s10---------------------|-----------------------------------------|
A:------6s8-------------------------------|-----------------------------------------|
E:----------------------------------------|-----------------------------------------|
Abmaj7
Dbmaj7
e:-------------11-------------------------|-----------------------------------------|
B:--11-13--14-------14p13--11-------------|-----------------------------------------|
G:-----------------------------13h15---13-|-15b-15-p13-15--13---13~~~~~-------------|
D:----------------------------------------|-----------------------------------------|
A:----------------------------------------|-----------------------------------------|
E:----------------------------------------|-----------------------------------------|
Abmaj7
Dbmaj7
e:--13----------13------------------------|-----------------------------------------|
B:------16b~~~~~----16-(13)-----13--16-13-|-----------------------------------------|
G:---------------------------16-----------|-15b-15---15---13-15--13~~~~~------------|
D:----------------------------------------|-----------------------------------------|
A:----------------------------------------|-----------------------------------------|
E:----------------------------------------|-----------------------------------------|

Abmaj7
e:---------------------------------------------------------13----13-|
B:---------------------------------------13----13-16-13-16----16----|
G:---------------------13----13-15-13-15----15----------------------|
D:---13----13-15-13-15----15----------------------------------------|
A:15----15----------------------------------------------------------|
E:------------------------------------------------------------------|
Dmaj7
e:-16b--16--16----13---13--13--13--13--13-|
B:----------------------------------------|
G:----------------------------------------|
D:----------------------------------------|
A:----------------------------------------|
E:----------------------------------------|
Like I said
*VERSE 2:
Abmaj7
Dbmaj7
It's been three years since I'm knocking on your door,
and I still can knock some more.
Ooh, girl, Ooh, girl, is it feasible,
I wanna know now, for I to knock some more?
Ya see, in life I know there's lots of grief,
but your love is my relief.
Tears in my eyes burn, tears in my eyes burn
while I'm waiting, while I'm waiting for my turn. U'See...
*CHORUS:
Abmaj7
Dbmaj7
I don't want to wait in vain for your love
I don't want to wait in vain for your love
I don't want to wait in vain for your love
I don't want to wait in vain for your love
I don't want to wait in vain for your love, whoa...
I don't wanna, (x4) I don't wanna wait in vain,
No,
I don't wanna, (x4) I don't wanna wait in vain,
No, I,
No, I
no, no, no, I, oh, I.
It's yourLove that I'm waiting on,
it's my love that you're running from.
It's you Love that I'm waiting on,
it's my love that you're running from, Oh.

Abmaj7 - 466544
Dbmaj7 - x46564
Db - x46664
Eb - x68886
Cm7 - x35343
Bbm7 - x13123

Colbie Caillat - Realize


REALIZE
G[3x0033]
Dsus4(onF#)[2x0233]
Cadd9[x32033]
Em7[020033]
D(onF#)[2x0232]
G(onB)[x2x033]
Capo Fret 6
VERSE 1:
G
Take time to realize
Dsus4(onF#)
Cadd9
Em7
Dsus4(onF#)
That your warmth is crashing down on me
G
Take time to Realize
Dsus4(onF#)
Cadd9
Em7
That I am on your side Didnt I, didnt I tell you

Dsus4(onF#)

PRE CHORUS:
Cadd9
Em7
But I cant spell it out for you
D(onF#)
No its never gonna be that simple
Cadd9
Em7
D(onF#)
No I cant spell it out for you

CHORUS:
G
Dsus4(onF#)
If you just realize, what I just realized
Em7
Cadd9
Then wed be perfect for each other and well never find another
G
Dsus4(onF#)
Just realize what I just realized,
Em7
Cadd9
wed never have to wonder if we missed out on each other now

VERSE 2:
G
Take time to realize
Dsus4(onF#)
Oh oh, I'm on your side
Em7
Cadd9
Didn't I, didn't I tell you
G
Take time to realize
Dsus4(onF#)
Em7
Oh ohh I'm on your sidee ohh

Cadd9
oh ohh ohh

PRE CHORUS:
Cadd9
Em7
But I cant spell it out for you
[ Tab from: http://www.guitaretab.com/c/colbie-caillat/313536.html ]
D(onF#)
No its never gonna be that simple
Cadd9
Em7
D(onF#)
No I cant spell it out for you

CHORUS:
G
Dsus4(onF#)
If you just realize, what I just realized
Em7
Cadd9
Then wed be perfect for each other and well never find another
G
Dsus4(onF#)
Just realize what I just realized,
Em7
Cadd9
wed never have to wonder if we missed out on each other boy

BRIDGE:
Em7
D(onF#) Cadd9
D(onF#)
Its not the same,
no its never the same
Em7/D(onF#)/G/G(onB)/Cadd9/
If you dont feel it too
Em7
D(onF#)
Cadd9
D(onF#)
If you meet me half way, If you would meet me half way
Em7/D(onF#)/G/G(onB)/Cadd9/
It could be the same for you...
CHORUS:
G
Dsus4(onF#)
If you just realize, what I just realized
Em7
Cadd9
Then wed be perfect for each other and well never find another
G
Dsus4(onF#)
Just realize what I just realized,
Em7
wed never have to wonder
G
Dsus4(onF#)
Just realize what I just realized,
G
Dsus4(onF#)
If you just realize, what I just realized

LAPIT yeng
Intro:
E-B-C#m-B
Verse:
E-B-C#m-B
Refrain:
A-B
Bridge:
E-B-C#m-B
Pikit mata
Nagtatanong
Ng sagot sa bakit
Pikit mata
Lumuluha
Di maintindihan puno ng pait
Refrain:
Parang walang nakikinig
Dyan kanagkakamali
Chorus:
Lapit sa akin
At huwag matakot ka
Papawiin ang luha
Ulan ay titila na
Kahit sabihin mo na
Di na kaya
Araw ay sisikat
May bagong liwanag
Di ka nagiisa
Naghahanap
Naghihintay
O sa mundo kaya
Nalang sumabay
Nangingimi
Na sumuko na
Di makita
San bang pagasa
Refrain:
Parang walang nakikinig
Dyan kanagkakamali

Chorus:
Lapit sa akin
At huwag matakot ka
Papawiin ang luha
Ulan ay titila na
Kahit sabihin mo na
Di na kaya
Araw ay sisikat
May bagong liwanag
Di ka nagiisa
(Adlib)
Bridge:
Problema'y parang ulan
Nawalang katapusan
Di Makita kung sa'n sisilong
At sa hakbang merong dilim na
Laging nanjan
Di alam kung sa'n tutungo
Refrain:
Parang walang nakikinig
Dyan ka nagkakamali
Chorus:
Lapit sa akin
At huwag matakot ka
Papawiin ang luha
Ulan ay titila na
Kahit sabihin mo na
Di na kaya
Araw ay sisikat
May bagong liwanag
Di ka nagiisa
Kahit sabihin mo na
Di na kaya
Araw ay sisikat
May bagong liawanag
Di ka nagiisa

THE ONE THAT GOT AWAY


E
Summer after high school when we first
met
G#m
We make out in you mustang to radio
head
C#m
A
And on my 18th birthday we bought
matching tattoos
E
Used to steal your parent's liquor and
climb to the roof
G#m
Talk about our future like we had a
clue
C#m
A
Never planned that one day I'd be
losing you
E
G#m
In another life I would be your girl
C#m
A
We keep all our promises be us against
the world
E
G#m
In another life I would make you stay
C#m
A
So I don't have to say you were the one
that got away
The one that got away
E
I was June you were my johnny cash
G#m
Never one without the other we made a
pact
C#m
A
Sometimes when I miss you I put those
records on woah
E
Someone said you had your tattoo
removed
G#m
Saw you down town singin the blues
C#m
A
It's time to face the music I'm no
longer your muse
E
G#m
In another life I would be your girl
C#m
A
We keep all our promises be us against
the world

E
G#m
In another life I would make you stay
C#m
A
So I don't have to say you were the one
that got away
The one that got away
E

G#m
C#m
A
The one
the one
the one
the
one that got away
B
A

C#m

All his money can't buy me a time


machine no
B
C#m
A
Can't replace you with a million
rings no
B
C#m
A
I shoulda told you what you meant to
me woah
B
Cause now I pay the price
E
G#m
In another life I would be your girl
C#m
A
We keep all our promises be us against
the world
E
G#m
In another life I would make you stay
C#m
A
So I don't have to say you were the one
that got away
The one that got away
E

G#m
The one

C#m
the one

A
the one

E
G#m
In another life I would make you stay
C#m
A
So I don't have to say you were the one
that got away
E---- (strum once and
let it ring)
The one that got away

IT WILL RAIN - BRUNO


Capo on 2
C
Em
If you ever leave me baby
C
Em
Leave some morphine at my door
Dm
Am
Cause it would take a whole lot of medication
Dm
G
To realize what we used to have, we don't,
Have it anymore
C
Em
There's no religion that could save me
C
Em
No matter how long my knees are on the floor, oh oh
Dm
Am
So keep in mind all the sacrifices I'm makin'
Dm
G
To keep you by my side to keep you from walking out the door
F
G
Cause there'll be no sunlight
Em
Am Gsus2 [xx0033]
If I lose you baby
F
G
There'll be no clear skies
Em
Am Gsus2
If I lose you baby
F
G
E7
Am
Just like the clouds my eyes will do the same
Gsus2
Dm
If you walk away
G
G-once
Everyday it will rain, rain, ra-AAA-in
C
Em
Oooh, oooh, oooh
C
Em
Oooh, oooh, oooh
C -once
Em -once...then mute
I'll never be your Mother's favorite
C
Em
Your Daddy can't even look me in the eye, oooh
Dm
Am
If I was in their shoes I'd be doin' the same thing
Dm
Sayin' "There goes my little girl
G
Walkin' with that troublesome guy"
C
Em
But they're just afraid of something they can't understand, oooh
C
Em
But little by little watch me change their minds

Dm
Am
And for you I'll try, I'll try, I'll try, I'll tr---y
Dm
I'll pick up these broken pieces 'til I'm bleedin'
G
If that'll make it right

F
G
Cause there'll be no sunlight
Em
Am Gsus2 [xx0033]
If I lose you baby
F
G
There'll be no clear skies
Em
Am Gsus2
If I lose you baby
F
G
E7
Am
Just like the clouds my eyes will do the same
Gsus2
Dm
If you walk away
G
G-once
Everyday it will rain, rain, ra-AAA-in
C
Em
Oooh, oooh, oooh
C
Em
Oooh, oooh, oooh
F
Em
Oh, don't you say (don't you say) goodbye (goodbye)
F
Em
Don't you say (don't you say) goodbye (goodbye)
Dm
I'll pick up these broken pieces 'til I'm bleedin'
G
If that'll make it right
(*Single strum each chord, here on out*)
F
G
Cause there'll be no sunlight
Em
Am Gsus2 [xx0033]
If I lose you baby
F
G
There'll be no clear skies
Em
Am Gsus2
If I lose you baby
F
G
E7
Am
Just like the clouds my eyes will do the same
Gsus2
Dm
If you walk away
G
G-once
Everyday it will rain, rain, ra-AAA-in
C
Em
Oooh, oooh, oooh
C
Em
Oooh, oooh, oooh

LET ME BE THE ONE JIMMY BONDOC


INTRO:
E----------12------12-------7----9-9-------7-9--9------------9------B-----10-------10------10--------------10----10-10--10---12---------G-------9-----------------------------------------------------------D-------------------------------------------------------------------A-------------------------------------------------------------------E----------10---------------9--------------7-------------9----------E pause
E----------12------12-------7----9-7----------------0------B-----10-------10------10--------------10/5---------5------G--------9----------------------------------7-------4------D-----------------------------------------4---------6------A-----------------------------------------5---------7------E----------10---------------9-----------------------0------^ hit it upstroke
E-------------------------------------0---I
B------------2-------------2----------5---I
G---------2h4--4--------2h4---4--2----2---I
D-------2-------------2-------------------I
A----0-------------0----------------------I
E-----------------------------------------I
v s
^ v
E-----------------------------------------I
B------------2----2-2---2-2-------2-------I
G---------2h4--4--2-2---2-2----2h4--4-----I
D-------2---------2-2---2-2--2------------I
A----0--------------------0---------------I
E-----------------------------------------I
VERSE 1:
RIFF 1
V with tap
E----------------B--------2-5---5-G--------4-2---2-D--------2-0---0-A----0---0-------E-----------------

somebody told me you're unhappy..


-------------------2------5------4-------------2-0--------0--0-----------------------

somebody..don't want me no more...ohhh..


E------------------------------------------------5--0-B----5---2----2---5--5------------2-----3-3--2h3----5-G----4-4-2-2h4----2--2----------2-------4-4---------4-D----6---4------0-------------2---------4-4---------6-A----4---4-----------------4----------2---2---------7-E--------2--------------------------------------------VERSE 2:
Nobody told me...
fell out.... free...
E--------------4--2--------------4-2-2---------------B------2--5----5--2-----5---5-5--5-2-3----------5--7-G------2--2----4--3--2h4----2-2--4-2-4--------4----4-D------2--0----6--4---------0-0--6-4-4------6------6-A----0---------4--4--------------4-4-2----0--------4-E-----------------2----------------2------------------

CHORUS:
D
C#m
Let me be the one to break it up
Bm
A
So you won't have to make excuses
D
C#m
We don't need to find a set up where
Bm
A
Someone wins and someone loses
D
C#
We just have to say our love was true
F#m
B
But has now become a lie
Bm
A/c#
So i'm telling you i love you
Bm
one last time...
and goodbye...ohh..
INTRO:
Epause
E----------12------12-------7----9-7----------------0------B-----10-------10------10--------------10/5---------5------G--------9----------------------------------7-------4------D-----------------------------------------4---------6------A-----------------------------------------5---------7------E----------10---------------9-----------------------0------E------5---0----B---3/5--5-3/2--- repeat verse
G---------------- with plucking
D---------------A--------------0E---------------VERSE 3:
A
D
Somebody told me you still love me
A-D
I don't know why
A
D
Nobody told me that you only
C#m
F#m
needed time to fly
D
Somebody told me that you
C#m
F#m
Bm
want to come back when
E
A
Our love is real again,hmmm
Reapeat CHORUS:
Bm
...one last time
A (strum it loud)
and goodbye.....

BRIDGE:
D
Just turn around and walk away
C#m
Bm-E
You don't have to live like this ohhh...
C#m
F#m
If you love me still then stay
D
C#
Don't keep me waiting for that final kiss
F#m
C#m
We can work together through this test
D
C#m
Or we can work through it apart
C
F
I just need to get this off my chest
Bm
E (stum it loud)
That you will always have my heart
Let me be the one...
Repeat CHORUS:
CODA: (kakapain ko pa)
oH let me be the one, hmmm
oh.. i love you..

LONG DISTANCE - BRUNO


Verse:
C
F
There's only so many songs that I can sing to pass the time
C
F
And I'm running out of things to do to get you off my mind
Bridge:
Em
Am
All I have is this picture in a frame
D
G
That I hold close to see your face everyday
Chorus:
C
G
Am
With you is where I'd rather be
F
But we're stuck where we are
C
G
Am
And it's so hard,you're so far
F
This long distance is killing me
C
G
Am
I wish that you were here with me
F
But we're stuck where we are
C
G
Am
And it's so hard,you're so far
F
This long distance is killing me
Interlude:
C
G
It's so hard,it's so hard
Am
Where we are,where we are
F
You're so far,this long distance is killing me
C
G
It's so hard,it's so hard
Am
Where we are,where we are
F
You're so far,this long distance is killing me
Verse:
C
Now the minutes feel like hours
F
And the hours feel like days
While I'm away
C
You know right now I can't be home
F
But I'm coming home soon,coming home soon
[ Tab from: http://www.guitaretab.com/b/bruno-mars/279997.html ]
Bridge:
Em
Am
All I have is this picture in a frame
D
G
That I hold close to see your face everyday

Chorus:
C
G
Am
With you is where I'd rather be
F
But we're stuck where we are
C
G
Am
And it's so hard,you're so far
F
This long distance is killing me
C
G
Am
I wish that you were here with me
F
But we're stuck where we are
C
G
Am
And it's so hard,you're so far
F
C G Am
Can you hear me crying?
F
C G Am
Can you hear me crying?
F
C G Am
Can you hear me crying?
F C G Am F
Chorus:
C
G
Am
With you is where I'd rather be
F
But we're stuck where we are
C
G
Am
And it's so hard,you're so far
F
This long distance is killing me
C
G
Am
I wish that you were here with me
F
But we're stuck where we are
C
G
Am
And it's so hard,you're so far
F
This long distance is killing me
Interlude:
C
G
It's so hard,it's so hard
Am
Where we are,where we are
F
You're so far,this long distance is killing me
C
G
It's so hard,it's so hard
Am
Where we are,where we are
F
You're so far,this long distance is killing me
Ending:
C
There's only so many songs
F
That I can sing to pass the tme..

CANT CRY HARD ENOUGH


Am G Am A# C G Am C F Em G C
Intro and Between verses
Alternate version
C
C
e|-------------0---|-3----|
e|-----3-------0---|-3----|
B|-----1-----------|-1----|
B|-----1-------1---|-1----|
G|---0---0---0---0-|-0----|
G|---0---0---0---0-|-0----|
D|---------3-------|-2----|
D|---------3-------|-2----|
A|-3---------------|-3----|
A|-3---------------|-3----|
E|-----------------|------|
E|-----------------|------|
C
e|------------------------|
B|-------1-----------1----|
G|----0-----0-----0-----0-|
D|------------------------|
A|-3-----------3----------|
E|------------------------|
I'm gonna live my life
G
Am
|------------------------------|------------------------|
|-------3---------------3------|-------1-----------1----|
|----0-----0--------0--------0-|----2-----2-----2-----2-|
|------------------------------|------------------------|
|-2-----------2----------------|-0-----------0----------|
|------------------------------|------------------------|
like every day's - the last
C
F
|--------------------------------|------------------------|
|-------1-----------------1------|-------1-----------1----|
|----0-----0-----------0-----0---|----2-----2-----2-----2-|
|--------------------------------|------------------------|
|--------------------------------|------------------------|
|-3--------------3---------------|-1-----------1----------|
without a simple good - by
Em
G
C
(intro)
e|--------------------------------|-------------0---|-3----|
B|--------0-------------3---------|-----1-----------|-1----|
G|-----0-----0-------4-----4------|---0---0---0---0-|-0----|
D|--------------------------------|---------3-------|-2----|
A|--------------------------------|-3---------------|-3----|
E|--0-------------3---------------|-----------------|------|
It all goes by so
fast

Verse 1:
I'm gonna live my life
Like every day's the last
Without a sim-ple good-by
It all goes by so fast
Verse 2:
And now that you're gone
I can't cry hard enough
No I can't cry hard enough
For you to hear me know
Verse 3:
Gonna open my eyes
And see for the first time
I've let go of you like
A child letting go of his kite
Chorus:
Am
G
There it goes up in the sky
Am
A#
There it goes beyond the clouds
C
G
Am
For no reason why--------y
I can't cry hard enough
C
F
Em
G
C
(CaddD)
....No I can't cry hard enough-for you to hear me now
Verse 4:
Gonna look back in vain
And see you standing there
When all that remains
Is just an empty chair

chord pattern:
G
D
Em
C
Cm
e|---3----2----3-----3----3---|
B|---3----3----3-----3----4---|
G|---0----2----0-----0----5---|
D|---0----0----2-----2----5---|
A|---2---------2-----3----3---|
E|---3---------0--------------|
intro:
G - D - Em - C (2x)
verse1:
G
D
Em
C
nag-iisang pag-ibig ang nais makamit yun ay ikaw
G
D
Em
C
nag-iisang pangako na di magbabago para sa'yo
refrain 1:
D
Em
C
san ka man ay sana'y maalala mo
D
Em
C
Cm
kailanma'y asahang di magkalayo
chorus:
G
Em
C
D
tanging ikaw lamang ang aking iibigin
G
Em
C
D
walang ibang hiling kundi ang yakap mo't halik
repeat intro...
verse2:
G
D
Em
C
hindi malilimutan, mga araw nating kay sarap balikan...
G
D
Em
C
at lagi mong isipin, wala ng ibang mahal kundi ikaw
refrain 2:
D
Em
C
malayo ka man ay sana'y maalala mo
D
Em
C
Cm
kailan man pangako, di magkakalayo
repeat chorus
adlib: G - D - Em - C
refrain, chorus 2x
G
Em
C
D
tanging ikaw lamang ang aking iibigin...

SUPERMAN-By Five For Fighting


Chords:
C
x32010
G
320033
Am
002210
Intro:
C G Am F
C
I can't stand to fly
Am
F
I'm not that naive
C
G
I'm just out to find
Am
The better part of me

F
D

C
I'm more than a bird...I'm more that a plane
Am
F
More than some pretty face beside a train
C
G
F C
It's not easy to be me
C
G
Wish that I could cry
Am
F
Fall upon my knees
C
G
Find a way to lie
Am
About a home I'll never see

C
It may sound absurd...but don't be naive
Am
F
Even heroes have the right to bleed
C
I may be disturbed...but won't you concede
Am
F
Even heroes have the right to dream
C
G
F C G
It's not easy to be me
Am
G
F
Am
Up, up ahead...away from me
D
Am
It's all right...you can all sleep sound tonight
F
G
I'm not crazy...or anything...
I can't stand to fly
I'm not that naive
Men weren't meant to ride
With clouds between their knees
I'm only a man in a silly red sheet
Digging for kryptonite on this one-way street
Only a man in a funny red sheet
Looking for special things inside of me
It's not easy to be me

133211
xx0232

HERO ENRIQUE IGLESIAS


Intro:
---3-------3-------3-------3-------3-------3-------3------------------------------3-------3-------3-------3-------3-------3-------3------------------------------0-------0-------0-------0-------0-------0-------2----------------------------------------------------------------------0-------0----------------------------------------------------3-------3------------------------------------3-------3-------0-------0---------------------------------------------------Verse 1:
---3-------3-------3-------3-------3-------3-------3-------3----------------------3-------3-------3-------3-------3-------3-------3-------3----------------------0-------0-------0-------0-------0-------0-------2-------2--------------------------------------------------------------0-------0----------------------------------------------------3-------3------------------------------------3-------3-------0-------0------------------------------------------------------3-------3-------3-------3-------3-------3-------3-------3----------------------3-------3-------3-------3-------3-------3-------3-------3----------------------0-------0-------0-------0-------0-------2-------0--------------------------------------------------------------0--------------------------------------------------------------------3--------------------------------------------3-------3-------0-------0-----------------------3-------3-------------------X2
Chorus:
G
D
C
G
D
C
I can be your Hero Baby..... I can kiss away the pain......
G
D
C
G
D
C
I will stand by you forever....You can take...my breath away...
Verse 2:
---3-------3-------3-------3-------3-------3-------3-------3----------------------3-------3-------3-------3-------3-------3-------3-------3----------------------0-------0-------0-------0-------0-------0-------2-------2--------------------------------------------------------------0-------0----------------------------------------------------3-------3------------------------------------3-------3-------0-------0------------------------------------------------------3-------3-------3-------3-------3-------3-------3-------3----------------------3-------3-------3-------3-------3-------3-------3-------3----------------------0-------0-------0-------0-------0-------2-------0--------------------------------------------------------------0--------------------------------------------------------------------3--------------------------------------------3-------3-------0-------0-----------------------3-------3-------------------Chorus:
G
D
C
G
D
C
I can be your Hero Baby..... I can kiss away the pain......
G
D
C
G
D
C
I will stand by you forever....You can take...my breath away...

Solo:
Turn you guitar sideways to play this part right...hehehehehehe
-------------------------------------------------------------------------------------------------------7------------7-8-7---------------------------------------------------5/7-7-7---7-------7h9------7-------------------------7------5-5-5-7-7/9-----------------------------------7/9-7----------9p7----9-------------------------------------------------------------------------10--------------------------------------------------------------------------------------Verse 3:
---3-------3-------3-------3-------3-------3-------3-------3----------------------3-------3-------3-------3-------3-------3-------3-------3----------------------0-------0-------0-------0-------0-------0-------2-------2--------------------------------------------------------------0-------0----------------------------------------------------3-------3------------------------------------3-------3-------0-------0------------------------------------------------------3-------3-------3-------3-------3-------3-------3-------3----------------------3-------3-------3-------3-------3-------3-------3-------3----------------------0-------0-------0-------0-------0-------2-------0--------------------------------------------------------------0--------------------------------------------------------------------3--------------------------------------------3-------3-------0-------0-----------------------3-------3-------------------Chorus:
Repeat til song fades out.....
G
D
C
G
D
C
I can be your Hero Baby..... I can kiss away the pain......
G
D
C
G
D
C
I will stand by you forever....You can take...my breath away...

SOMEBODYS ME
Capo: fret 1

- ENRIQUE IGLESIAS

(G)
(C)
E|------------------------------0-0-0-0-0-0-----------|
B|------------------------------1-1-1-1-0-1-----------|
G|-----2-0h2p0-2--2h4-2h0-------0-0-0-0-0-0-----------| -- 2x
D|-----0-0-0---0--0---0---------2-2-2-2-2-2-----------|
A|-----0-0-0---0--0---0---------3-3-3-3-3-3-----------|
E|--3---------------------------0-0-0-0-0-0-----------|
Verse 1
G
C
G
You, Do you remember me
C
G
Like I remember you
C
D
C
Do you spend you life going back in your mind to that time
G
C
G
Cause I, I walk the streets alone
C
G
I hate being on my own
C
And everyone can see that,
D
C
D
I really fell And I'm going through hell
C
D
Thinking about you with somebody else
Chorus:
G
D
Somebody wants you Somebody needs you
C
G
Somebody dreams about you every single night
G
D
Somebody can't breathe Without you it's lonely
C
G
And somebody hopes that one day you'll see
G
D C
That somebody's me
That somebody's me
Verse 2
How, How did we go wrong
It was so good and now it's gone
And I pray at night, That our path soon will cross,
and what we had is a lost
Cause your always right here in my thoughts
Chorus:
Somebody wants you Somebody needs you
Somebody dreams about you every single night
Somebody can't breathe Without you it's lonely

And somebody hopes that someday you'll see That somebody's me


Bridge:
E
C
You will alway be in my life Even if I'm not in your life
G
D
Cause you're in my memory
Verse
You When you remember me And before you set me free
Oh, listen please
Chorus:
Somebody wants you
Somebody needs you
Somebody dreams about you every single night
Somebody can't breathe Without you it's lonely
And somebody hopes that someday you'll see
That somebody's me
That somebody's me
That somebody's me
That somebody's me

Creep
=====
By Radiohead
G
When you were here before
B
Couldn't look you in the eyes
C
You look like an angel
Cm
Your skin makes me cry
G
You float like a feather
B
In a beautiful world
C
I wish I was special
Cm
You're so fucking special
Chorus:
G
But I'm a creep
B
I'm a wierdo
C
What the hell am I doin' here
Cm
I don't belong here
I
I
I
I

don't care if it hurts


wanna have control
wanna perfect body
want a perfect soul

I want you to notice


When I'm not around
You're so fuckin' special
I wish I was special....
(then something like this...)
oooh... she's running away....she's running...run..run...run..ruuuuun
Whatever makes you happy
Whatever you want
You're so fucking special
Wish I was special...

My Immortal ( acoustic version )


Artist: Evanescence
Intro:(A

C#m)2X

A
C#m
I'm so tired of being here
A
C#m
suppressed by all of my childish fears
A
and if you have to leave
C#m
I wish that you could just leave
A
because your presence still lingers here
C#m
and it won't leave me alone
Pre-CHORUS:
F#m
C#m
These wounds won't seem to heal
F#m
C#m
this pain is just too real
F#m
C#m
E
there's just too much that time cannot erase
CHORUS:
F#m
D
E
C#m
When you cried I'd wipe away all of your tears
F#m
D
E
C#m
When you'd scream I'd fight away all of your fears
F#m
D
E
C#m
And I've held your hand through all of these years
F#m
D
E
A C#m A C#m
but you still have all of me
Just like the first verse
A
C#m
You used to captivate me by your resonating light
but now I'm bound by the life you left behind
Your face it haunts my once pleasant dreams
your voice it chased away all the sanity in me
Pre-CHORUS
CHORUS
D
F#m
E
D
I've tried so hard to tell myself that you're gone
F#m
C#m
but though you're still with me
D
E
F#m
D
E
C#m
I've been alone all along

----------------------------------------------------------------------------Demons by Imagine Dragons:


----------------------------------------------------------------------------Capo: 3rd fret
Tuning: Standard EADGBe
Chords used:
C
G
Am
F
e|--0---3---0----1---------------------------------------------------------------|
B|--1---3---1----1---------------------------------------------------------------|
G|--0---0---2----2---------------------------------------------------------------|
D|--2---0---2----3---------------------------------------------------------------|
A|--3---2---0----x---------------------------------------------------------------|
E|--x---3---x----x---------------------------------------------------------------|
C
When the days are cold
G
And the cards all fold
Am
And the saints we see
F
Are all made of gold
C
When your dreams all fail
G
And the ones we hail
Am
Are the worst of all
F
C
And the blood's run stale
G
I want to hide the truth
Am
I want to shelter you
F
But with the beast inside
C
There's nowhere we can hide
G
No matter what we breed
Am
We still are made of greed
F
This is my kingdom come
C
This is my kingdom come
G
When you feel my heat
Am
Look into my eyes
F
It's where my demons hide
C
It's where my demons hide
G
Don't get too close
Am

It's dark inside


F
It's where my demons hide
C
It's where my demons hide

When the curtain's call


G
Is the last of all
Am
When the lights fade out
F
All the sinners crawl
C
So they dug your grave
G
And the masquerade
Am
Will come calling out
F
At the mess you made
C
G
Don't want to let you down
Am
But I am hell bound
F
Though this is all for you
C
Don't want to hide the trut
h
G
No matter what we breed
Am
We still are made of greed
F
This is my kingdom come
C
This is my kingdom come
G
When you feel my heat
Am
Look into my eyes

F
It's where my demons hide
C
It's where my demons hide
G
Don't get too close
Am
It's dark inside
F
It's where my demons hide
C
It's where my demons hide
G
They say it's what you make
Am
I say it's up to fate
F
It's woven in my soul
C
I need to let you go
G
Your eyes, they shine so br
ight
Am
I want to save their light
F
I can't escape this now
C
Unless you show me how
G
When you feel my heat
Am
Look into my eyes
F
It's where my demons hide
C
It's where my demons hide
G
Don't get too close
Am
It's dark inside
F
It's where my demons hide
C (let
it ring...)
It's where my demons hide

THE ONE THE ONLY BOB MARLEY!


No woman no cry
tabbed by: DOUG
C

G/B
No woman no
C
F
No woman no
C
G/B
No woman
Here little
C
F
No woman no

Am F
cry
C
G
cry
Am
F
no cry
1st verse
darlin dont shed no tears 2nd verse
C
cry

G
Said said
C
G/B
Am
F
said I remember when we used to sit
C
G/B
Am
In the government yard in trenchtown
C
G/B
Am
Oba obaserving the hypocrites 1st verse
And then Georgie would make a fire light 2nd verse
C
G/B
Am
As they would mingle with the good people we meet
as it was log wood burnin through the night
C
G/B
Am
F
good friends we had oh
good friend we lost
Then we would cook corn meal porridge
C
G/B
Am
F
along the way
of which I'll share with you
C
G/B
Am
F
In this bright future you cant forget your past
my feet is my only carriage

Marry your daughter


Tuning: Standard
Capo 1 (You don't have to play with a one but it sounds better
Intro: C G Am F G
C
G
Sir I'm a bit nervous about being here today,
Am
F
Still not quite sure what I'm going to say.
C
G
Am
F
So bare with me please if I take up too much of your time.
C
G
See in this box is a ring for your oldest,
Am
F
She's my everything and all that I know is,
C
G
Am
It would be such a relief if I knew we were on the same side.
F
G
'Cuz very soon I'm hoping that I,
Chorus:
C
Can marry your daughter,
G
And make her my wife.
Am
F
C
I want her to be the only girl that I love for the rest of my life,
G
Am
F...
And give her the best of me till the day that I die.
F
C
G
I'm gonna marry your princess and make her my queen.
Am
F
She'll be the most beautiful bride that I've ever seen.
C
I can't wait to smile,
G
When she walks down the aisle,
Am
On the arm of her father,
F
C
On the day that I marry your daughter.
C
G
She's been here every step since the day that we met.
Am
F
Scared to death to think of what would happen if she ever left.
C
G
Am
F
So don't you ever worry about me ever treating her bad.
C
G
I've got most of the vows done so far.
Am
F
So bring on the better or worst, and till death do us part
C
There's no doubt in my mind
G
Am
It's time I'm ready to start.
F
G...
I swear to you with all of my heart,
Chorus:
C
I'm gonna marry your daughter,
G
And make her my wife.
Am
F
C

I want her to be the only girl that I love for the rest of my life,
G
Am
F...
And give her the best of me till the day that I die.
F
C
G
I'm gonna marry your princess and make her my queen.
Am
F
She'll be the most beautiful bride that I've ever seen.
C
I can't wait to smile,
G
When she walks down the aisle,
Am
On the arm of her father,
F
C
On the day that I marry your daughter.
G
Am
F...
The first time I saw her I swear I knew that I'd say I do.
Chorus:
C
I'm gonna marry your daughter,
G
And make her my wife.
Am
F
C
I want her to be the only girl that I love for the rest of my life,
G
Am
F...
And give her the best of me till the day that I die.
F
C
G
I'm gonna marry your princess and make her my queen.
Am
F
She'll be the most beautiful bride that I've ever seen.
C
I can't wait to smile,
G
When she walks down the aisle,
Am
On the arm of her father,
F
C
On the day that I marry your daughter.
Outro: G Am F G C(strum once)

Pansamantala Calla llily


Intro: G D/F# Em7 C9 2x

G
D/F#
Pansamantalang unan

G
D/F#
Siya na ang mayaman

Em7
C9
Sa tuwing ika'y nahihirapan

Em7
C9
Siya na ang may oto, siya na

G
D/F#
Pansamantalang panyo

G
D/F#
Em7
Siya na ang meron ng lahat

Em7
C9
Sa tuwing ika'y nasasaktan

C9
Ng bagay na wala ako
Bridge:
G
D/F#
Em7
C9
'Di mo man sabihin, aking napapansin
Am
G/B
Kapag nalagay ka sa alanganin
C9
D
Dsus4
Heto na naman tayo
Chorus:

Em7
C9
Kaibigan lang bang maituturing
Em7
C9
Ang hirap naman yatang mangapa sa dilim
Em7
C9
D
sus4
Sino nga ba talaga sa amin ang iyong

G
D/F#
Pansamantalang unan
Chorus:
Em7
C9
Sa tuwing ika'y nahihirapan
G
D/F#
Pansamantalang panyo
Em7
C9
Sa tuwing ika'y nasasaktan

G
D/F#
Pansamantalang unan
Em7
C9
Sa tuwing ika'y nahihirapan
G
D/F#
Pansamantalang panyo

Verse 2:

Em7
C9
Sa tuwing ika'y nasasaktan

G
D/F#
Em7
C9
Bakit ba sa akin na lang palagi ang tak
bo

Outro:

G
D/F#
Sa tuwing kayo ay may away

G
D/F#
Pansamantala

Em7
C9
Ako ang lagi mong karamay

Em7
C9
Pansamantala

G
D/F#
C9 (strum once)
Di naman tayo, hindi

G
D/F#
Pansamantala

D
Diba't hindi

Em7
Tanggap ko na
End on G

Chorus:

C9

I will be here for you


chorus
A,C#m,F#m,D,E,A/C#,F#m,E
I will be here for you
Somewhere in the night
Somewhere in the night
A,C#m,F#m,B/Eb,D,A/C#,F#m,Bm,E,A(A/C#-B/Eb)
I'll shine a light for you
Somewhere in the night
I'll be standing by
I will be here for you
verse
E,A,B/Eb,C#m,A,E/G#,A,B 2x
When you feel the sunlight
Fade into the cold night
Don't know where to turn
Don't know where to turn
And all the dreams you're dreaming
Seem to lose their meaning
Let me in your world
Baby, let me in your world
refrain
E/G#,A,B,C#m,D,E/G#,A,E-E7
All you need is someone you can hold
Don't be sad your not alone
repeat chorus
verse 2
E,A,B/Eb,C#m,A,E/G#,A,B 2x
In this world of strangers
Of cold and friendly faces
There's someone you can trust
There's someone you can trust
I will be your shelter
I'll give you my shoulder
Just reach out for my love
Reach out for my love
refrain
E/G#,A,B,C#m,D,E/G#,A,E-E7
Call my name
And my heart will hear
I will be there, there's nothing to fear
repeat chorus 2x