You are on page 1of 25

A cada instante

F
SEOR,
C
YO QUIERO CONSTRUIR
Dm
Am
Gm
c
UNA HABITACION Y VIVIR JUNTO A TI
F
SEOR
C
EN SUPREMA ADORACION
Dm
Am
AQU EST MI CORAZN
Gm
C
QUE TE QUIERE ADORAR
F
C
//A CADA INSTANTE DE MI VIDA
Bb
C
YO TE AGRADECER
F
C
A CADA INSTANTE DE MI VIDA
Bb
C
SIEMPRE TE EXALTAR
F
C
A CADA INSTANTE DE MI VIDA
Bb
C
SIEMPRE TE AMAR
F
SEOR.//

ESPERO QUE LES GUSTE


DIOS LES BENDIGA.!
A Cristo
G Bm7
C
D
A Cristo, solo a Cristo yo exaltar.
G Bm7
C
D
A Cristo, solo a Cristo yo adorar.
Am7
D
Porque El me ha dado vida eterna.
Am7
D
Porque El me ha dado el poder.
Am7
D
Porque El me ha dado la victoria.
G F#m Em7 Am7
Bm7 C D G G/B
El es mi Rey.
A Cristo he proclamado Rey.

A DIOS EL PADRWE
G
D/F# Em
A Dios el Padre celestial
D/F# G
C D
al Hijo nuestro Redentor
G D
Am D Em
al eternal Conso - la - dor
D/F# G
Am D C
u - nidos todos alabar

A DIOS EL PADRE ORIGINLA


(Acordes Originales de la grabacin)
Fa FaMaj7 Fa6 Fa Do Rem Do Rem Lam7 Rem7
A DIOS EL PA - DRE CELESTIAL
Do Fa Do Fa Sib SibMaj7 Do
AL HIJO NUESTRO RE - DEN - TOR
Rem Do Rem7
Do Rem Sib Do Rem
AL E - TER - NAL CON - SO - LA - DOR
Do Fa Solm7 Fa Sib Fa Do Sib(add9) Do Re/Fa#
UNIDOS TO - DOS
A - LA - BAD
Sol
Re/Fa# Mim Re Mim Sim7 Mim7 Re Mim7
A DIOS EL PADRE CELES - TIAL
Re/Fa# Sol
Do DoMaj7
Re Mim Re
AL HIJO NUESTRO REDEN - TOR
DoMaj7 Re Mim Re Do Lam7 Re Mim7 Re Mim7 Sim7 Mim7
AL E - TER - NAL CON - SO - LA - DOR
Re/Fa# Sol

Mim7 Lam7 Sol/Si Do Sol Re Do(add9)

U - NI - DOS TO - DOS

A- LA - BAD

TECLADO
QUE DIOS LES BENDIGA MUCHO...
F FMaj7 F6 F
C
Dm C Dm Am7 Dm7
A DIOS EL PA - DRE CELESTIAL
C F C F Bb BbMaj7 C
AL HIJO NUESTRO RE - DEN - TOR
Dm C
Dm7
C Dm Bb C Dm
AL E - TER - NAL CON - SO - LA - DOR
C F Gm7 F Bb F C Bb(add9) C D/F#
UNIDOS TO - DOS
A - LA - BAD
G
D/F# Em D Em Bm7 Em7 D Em7
A DIOS EL PADRE CELES TIAL
D/F# G
C CMaj7
D Em D
AL HIJO NUESTRO REDEN - TOR
CMaj7 D Em D C Am7 D Em7 D Em7 Bm7 Em7
AL E - TER - NAL CON SO - LA DOR
D/F# G
Em7 Am7 G/B C G D C(add9)
U - NI - DOS TO - DOS
A- LA - BAD

A QUIEN IRE
G
A quien ir en necesidad?
Bm
a quien ire en busca de paz?
G
DA
y quien podra mi vida saciar de verdad?
D
quien mas tendra de mi compasion?
Bm
y entendera mi corazon?
G
D
A
quien cambiara mi eternidad? sino T, Jess
D
F#m
G
Cristo, a donde mas podria ir?
D
F#m
G
Cristo, que otro lugar puede existir?
Em
Solo T tienes palabra de amor
G
A
Camino al Padre y Verdad eres T
D

F#m

Bm

Cristo, a donde mas podria ir?

INTTRO
Intro
Re Mi Fa Fa Re
Re Mi Fa Fa [8va] Si Reb Re La
Re Mi Fa Fa Re Mi Fa Mi Re Reb - Re Reb Si (si mi re si) (La)GUITARRA
Re Mi Fa Fa Si Mi
Re Mi Fa Fa [8va] Si Reb Re La
Re Mi Fa Fa Re Mi Fa Mi Re Reb Si Re La
_______________________________________________________
Preludio

Si Sib Si Reb Re
Fa# Si Reb Re Fa# Mi Re Mi Fa# Mi Si Mi Re Reb Re Mi
Si Sib Si Reb Re
Fa# Si Reb Re Reb La La Si La
_________________________________________________________________________
Outro
Mi Fa# Sol Fa# Mi Re Reb
Re Mi Fa Mi Re Si
Mi Fa# Sol Fa#Mi Reb Re Re

Bien aki esta la parte del piano intro y outro, el solo se oye bien espero que sea util
y que Dios los bendiga
hiram alonso [hiramalre@hotmail.com] Torre Fuerte B.C

Esta cancin es una de mis favoritas....asi que cuidadito con hecharla a perder...
siempre hay que tocarla con humildad y dedicacin...
Intro: //Gmaj7-A9-Bm7-A9//
D
D/C#
A quin ir en necesidad
Bm
A9/F#
A quin ir en busca de paz
G
D A9
Y quin podr mi vida saciar de verdaaaa-ad
D
D/C#
Quin mas tendr de mi compasin
Bm
A9/F#
Y entender mi corazn
G
D
A9
Quin cambiar mi eternidad sino T Jess
CORO: D
A9/F#
G
Cristo a donde ms podra ir
D
A9/F#
G D/F#
Cristo que otro lugar puede exsistir
Em
A9/F#
Slo tu tiene palabras de Amor
G
A9
Camino al Padre y verdad eres T
D
A9/F#
G
Cristo adonde ms podra ir
PUENTE: A9-*Ab9/A#-Bm7-A9-G-A9-*AB9/A#-Bm7-A9...D

Aqui viene el puente en el que quedan las voces solas y cuando entra
la msica entran en (G) al coro.

Final: Es igual al Intro.

A QUIEN IRE
::InTrO::
G
A
B
F#
E|-3---------3|-5---------5|-7---------7|-2---------2||
A|------------|------------|------------|------------||
D|------------|------------|------------|------------||
G|------------|------------|------------|------------||
G
A
B
F#
E|-3---------3|------------|-7--------7-|-2---------2||
A|------------|-0---------0|------------|------------||
D|------------|------------|--------9---|------------||
G|------------|------------|------------|------------||
G
A
B
A
E|-3---------3|------------|----------2-|-5----------||
A|------------|-0---------0|-2----------|------------||
D|------------|------------|------------|------------||
G|------------|------------|------------|------------||
::EsTrOfA::
D
Bm
E|------------|-----------5|------------|------------||
A|-5---------5|-5-------5--|-2---------2|-2----------||
D|------------|------------|------------|------------||
G|------------|------------|------------|------------||
G
D
A
E|-3---------3|-3----------|------------|------------||
A|------------|------------|-5---------5|-0---------7||
D|------------|------------|------------|------------||
G|------------|------------|------------|------------||
::CoRo::
D
F#
G
E|------------|-2---2-2----|-3---3-3---3|-3---3-3----||
A|-5---5-5----|------------|---------5--|------------||
D|------------|------------|------------|------------||
G|------------|------------|------------|------------||
D
F#
G
E|------------|-2---2-2----|-3---3-3----|-3---3-3----7-10-|
A|-5---5-5----|------------|----------2-|-----------------|
D|------------|------------|------------|-----------------|
G|------------|------------|------------|-----------------|
E
G
A
E|-0---0-0----|-0---0-0---0-|-3---3-3---|-------------||

A|------------|----------7--|-----------|-0---0-0----0||
D|------------|-------------|-----------|-------------||
G|------------|-------------|-----------|-------------||
D
F#
G
A
E|------------|-2---2-2-----|-3---3-3------|------------||
A|-5---5-5----|-------------|----------5---|---------10s||...Estrofa...
D|------------|-------------|------------7-|-5--5-5-----||
G|------------|-------------|--------------|------------||
::InTeRmEdIo::
D
F#
G
A
Bb
E|------------|-2---2-2-----|-3---3-3---3--|-5---5-6----5||
A|-5---5-5----|-------------|----------5---|-------------||
D|------------|-------------|--------------|-----------8-||
G|------------|-------------|--------------|-------------||
Bm
Bm
A G
A
Bb
E|------------|----------5--|-3---3-3---3-|-5------6-----||
A|-2---2-2----|-2---2-2-----|-------------|--------------||
D|------------|-------------|-------------|--------------||
G|------------|-------------|-------------|--------------||
Bm
A
D
E|------------|-5------12---|-10----------||
A|-2---2-2---2|-----------12|-------------||
D|------------|-------------|-------------||
G|------------|-------------|-------------||
::FiNaL::
E
A
C
D
E|----------7-|-5-----------|-8-----------|-10-----------||
A|-7----------|-------------|-------------|--------------||
D|------------|-------------|-------------|--------------||
G|------------|-------------|-------------|--------------||
(Acordes originales de la grabacion.
La
La+(aug) La6
A QUIEN TENGO YO SINO A TI?
La+(aug)
FUERA DE TI NO QUIERO NADA
La
La+(aug)
La6
HE PUESTO EN TI MI ESPERANZA
La+(aug)
Sim(add2)
PARA CONTAR TODAS TUS OBRAS
Fa#7/La#
Sim(add2)
MI CORAZON DESFALLECIA
Misus4
Mi
MAS MI ROCA ERAS TU
Fa#m Do#+(aug)7/Mi#
La/Mi
CASTILLO Y REFUGIO ERES TU
Si(add2)/Re#
ReMaj7
FUERZA DE MI SALVACION
Sim7 Mi
ERES TU SEOR
La
La+(aug)
La6
A QUIEN TENGO ALLA SINO A TI?
La+(aug)
Sim(add2)
PERO DE AQUI NO QUIERO NADA
Fa#7/La#
Sim(add2)
MI CARNE DESFALLECIA
Misus4
Mi
MAS MI ROCA ERAS TU
Fa#m Do#+(aug)7/Mi#
La/Mi

CASTILLO Y REFUGIO ERES TU


Si(add2)/Re#
La/Si
Sim
FUERZA DE MI SAL - VA - CION
ReMaj7/Mi Mi/Re Do#m7
ESCUDO, ESTANDARTE ERES TU,
Mi/Fa#
Fa#m7
Mi/Fa#
EL SOL DE JUSTI - CIA ERES TU
Fa#m7
Sim7
Re/Mi Mi Re/Mi Mi
SE - OR, ERES TU
La
La+(aug)
La6
A QUIEN TENGO YO SINO A TI?
La+(aug)
La ReMaj7 FaMaj7 Rem La
F
A ti
Bb
F
el Alfa y la Omega
Asus4 A Dm
el principio y el fin
Bb
y el gran Yo Soy
G#m7
C
me rin - do
F
A ti
Bb
F
el Todopoderoso
Asus4 A Dm
el que es y que sera
Bb
y el gran Yo Soy
G#m7
C
me entre - go
Bb
C/Bb
Am7
Dm
Yo quiero que gobiernes mi vi - da
Bb
C/Bb
F Cm F
me doy en sacrificio a ti
Bb
C/Bb
Am7 Dm
yo quiero que ordenes mi cami - nar
Gm7
Am7 Bb C
Bb
que siempre viva en tu voluntad
(Acordes originales de la grabacin)
Fa Sib(add9) Fa
A TI EL ALFA Y LA OMEGA
Lasus4 La7/Do# Rem7
EL PRINCIPIO Y EL FIN
Sib(add9)
Y EL GRAN YO SOY

Sib/Do Do(add9) Sib/Do


ME RIN - DO
Fa(add9) Sibm6
Fa(add9) Fa
A TI EL TODOPODE - RO - SO
Lasus4 Mib7(#11) Rem7
EL QUE ES
Y QUE
SER
Sib(add9)
Sib/Do
Do Fa/La
Y EL GRAN YO SOY ME ENTRE - GO
Sib(add9)
Do/Sib
Lam7 Rem7
YO QUIERO QUE GOBIERNES MI VI - DA
Sib
Do/Sib
Fa Mib Fa(add9)
ME DOY EN SACRIFICIO A TI
Sib
Do/Sib Lam7
Rem7
YO QUIERO QUE TU ORDENES MI CA - MINAR
Solm7 Fa(add9)/La Sib Do11 Sib(add9)
QUE SIEMPRE VIVA
YO EN TU VOLUN - TAD

ACORDES:> E A D G C#m F#m Bm F#m7 Esus Fmaj7


INTRO: 4/4 E A | A/C# D ||X3
E A | A/C# G ||
A
A/C#
Al rey de reyes, Seor de Seores
D
G
E
Hoy le rendimos adoracin
A
A/C#
Como una ofrenda a ti levantamos
D
G
E
Un corazn lleno de pasin
C#m D2 C#m
D2
Por aquel que nos salvo
CORO:
A

F#m

A ti sea la gloria por todos los siglos


G
D
E
Te exalten los pueblos y cada nacion
A
F#m
Que toda la tierra proclame tu nombre
Bm
D
E
A
Cristo Jess, eres El Seor, Amen
PUENTE:
F#m7
E
Dios Maravilloso, Oh Rey Majestuoso
D
Esus
E
Hoy te ofrezco mi adoracin
F#m7
G
Exalto tu nombre, declaro Eres Digno
F#m
Fmaj7
G

Cordero inmolado, // ERES El Seor, Eres el Seor //

Eb/G Ab Bb Eb
Acuerdate oh Seor
Eb
Ab
Bb/D Eb
de las naciones de la tierra acuerdate
Eb/G Bbsus4-B Ab/Bb Eb
que tu favor
y tu amor
Eb/G Bb
:
Ab/Bb Eb ,
sean derramados sobre el mundo oh Seor
Bbsus4-B Bbsus Eb
En tu bondad
acuerdate
Bbsus4-B Bbsus Eb
En tu bondad
acuerdate
inter:
Cm Bb/D Ab/Eb Eb Fm Ab Bbsus Bb
Cm Bb/D
Ab/Eb,Eb,Eb/G Ab EbG Fm7 Ab
Bbsus-B
Eb/G Ab Bb Eb
Acuerdate oh Seor
Eb
Ab
Bb/D Eb
de las naciones de la tierra acuerdate
Eb/G Bb
B Ab/Bb Eb
que tu favor
y tu amor
Eb/G Bb
Ab/Bb Eb
sean derramados sobre el mundo oh Seor
Bbsus4-B Bbsus Eb
En tu bondad
acuerdate
Bbsus4-B Ab Eb
En tu bondad
acuerdate
Intermedio 2
Dm C/E Fsus/C
Bbsus F/A Gm7 F
C/E-C Bb/D C Bb-F/A
Gm7 Fsus C Bb/D

c/E F F/A Bbsus


F/A Gm7 Gm7/F Csus4
C Am7 Bb C/E F
Acuerdate oh Seor
F/A Bb
C/E F
de las naciones de la tierra acuerdate
F/A Csus4-C Bb/C f
que tu favor
y tu amor
C
Bb/C F
sean derramados sobre el mundo oh Seor
C7 C Csus F
en tu bondad acuerdate
F/A Bb C/E F
Acuerdate oh Seor
F/A Bb
C/E F
de las naciones de la tierra acuerdate
F/A Csus4-C Bb/C f
que tu favor
y tu amor
C
Bb/C F
sean derramados sobre el mundo oh Seor
Dm7 C7 C Csus Fsus
en tu bondad acuerdate (en tu bondad)
Dm7
Csus C Csus Fsus
En tu bondad acuerdate (en tu bondad, Seor)
Dm7
Csus C Csus Fsus
En tu bondad acuerdate
Csus C Csus Fsus

En tu bondad

acuerdate

Em
B7
Em
Oh Adonai, Oh Adonai.
C
D
Em
B7
Em
Dios del Universo, Seor de la creacin.
D
G
Los cielos cuentan tu gloria
D
G
Tus hijos hoy te adoran
B7
Em
Am B7
por todas tus maravillas, Adonai.
A
E/G#
E/F# F#m E7sus
Al estar en la presencia de tu divi__nidad
D
DM7
Bm7
Esus
y al contemplar la hermosura de tu santidad,
A
C#7
F#m7
mi espritu se alegra en tu majestad
DM7
Bm7
Esus E
Te adoro a t... te adoro a t.
A
E/G#
E/F# F#m
Cuando veo la grandeza de tu dulce amor
D
DM7
Bm7
Esus
y compruebo la pureza de tu corazn,
A
C#7
F#M7

mi espritu se alegra en tu majestad


DM7
E7sus
Te adoro a t... te adoro a t.
coro:
A
F#m
D
F#sus/C#
Y al estar aqu delante de ti te adorar.
Bm7
Esus
Postrado ante t mi corazn te adora oh Dios.
A
A/C#
D
Dm/F
Y siempre quiero estar para adorar y contemplar tu santidad.
E7sus
E7
Asus A
Te adoro a t Seor, te adoro a t.

I
D
Bm
AL ESTAR EN LA PRESENCIA DE TU DIVINIDAD .
G
A
Y AL CONTEMPLAR LA HERMOSURA DE TU SANTIDAD
D
F#
Bm
MI ESPIRITU SE ALEGRA EN TU MAJESTAD
Em
A
TE ADORO A TI , TE ADORO A TI
II
D
Bm
CUANDO VEO LA GRANDEZA DE TU DULCE AMOR
G
A
Y COMPRUEBO LA PUREZA DE TU CORAZON
D
F#
Bm
MI ESPIRITU SE ALEGRA EN TU MAJESTAD
Em
A
TE ADORO A TI, TE ADORO A TI....
coro:
D
Bm
G
Y AL ESTAR AQUI, DELANTE DE TI TE ADORAR
Em
A
POSTRADO ANTE TI, MI CORAZON TE ADORA OH DIOS
G
Gm
Y CONTEMPLAR TU SANTIDAD
Em
A
D
TE ADORO A TI SEOR, TE ADORO A TI
DIOS LE BENDIGA

Eb Ab Bb
Al que es Digno de recibir la gloria.
Eb Ab Bb
Al que es Digno de recibir el honor.
Ab Ab
Levantemos nuestras manos y
Cm Ab Bb Gm Cm
adoremos a Jess, Cordero de gloria.
Ab Bb Gm Cm
Exaltemos su incomparable majestad.
Ab
Al que vive por siempre.
Ab Bb Eb
Al gran Yo Soy: A Jess.
DIOS TE BENDICE!!!

(ACORDES ORIGINALES DE LA GRABACION)


Re
SolMaj9
Al que es digno de recibir la gloria
Fa#m7
La7sus4
Al que es digno de recibir el honor
Re
SolMaj9
Al que es digno de recibir la gloria
Fa#m7
La7sus4 La
Al que es digno de recibir el honor
SolMaj7

La/Sol

Fa#m7

Fa#m7
Sim

Levantemos nuestras manos y adoremos


SolMaj7 La/Sol Fa#m7
A Jess Cordero de Glo -

Lam7
ria

Lab7(b-5) SolMaj7
La/Sol Fa#m7 Si9
Y
exaltemos su incomparable ma - jestad
Mim7
Al que vi

Fa#m7 SolMaj7
ve por siempre

Mim7 Fa#m7 SolMaj7 La7sus4 La7


Al gran yo soy
a
Je - ss

Re

La7sus4

Re
Mim11
Al que es digno de recibir la gloria
Re/Fa#
SolMaj9
Al que es digno de recibir el honor
Re
Sol/Si
Al que es digno de recibir la gloria
Re
Re/Do Lam7 Re/Fa# Lab9(b-5) SolMaj7
Al que es digno de recibir el honor
Levante...
Mim7
///////Al que vi

Fa#m7 SolMaj7
ve por siempre

Mim7 Fa#m7 SolMaj7


Al
gran yo soy///////
La7sus4
La7
Dosus2
A
Je - ss

Sol/Si

Re

AL QUE ES DIGNO
Intro: C9 Bm7 Am7 Bm7 C9 Bm7 C/D D/C
A/G G/F F/C Eb/Bb A4 A Sigue Notas del Coro
D
Gmaj7
/Al que es digno de recibir la gloria
F#m7
A4
A al que es digno de recibir honor/
F#m Gmaj7
A/G
F#m7 Bm
Levantemos nuestras manos y adoremos
Gmaj7 A/G F#m7 Am7
a Jess cordero de gloria
D7/Ab Gmaj7
A/G
F#m7 B9
y exaltemos su incomparable majestad
Em7 F#m7 G
al que vive por siempre
Em7 F#m7 G
A D (vuelta final: Am7 D7)
al gran yo soy a Jesus

Puente:
Gmaj7 A/G F#m7 B Gmaj7 C13 Fmaj7 A4 A
D
Em7
Al que es digno de recibir la gloria
D/ F#
G
al que es digno de recibir honor
D/A
G/B
Al que es digno de recibir la gloria
D/A
Am7 D7 D/F# D7/Ab
al que es digno de recibir honor
Final
C Bm7 D
a Jess

Originalmente comienza un solo de batera


y luego entran los dems instrumentos.
Intro. Solm, Fa, Re#, Re
Solm Fa
Re# Re
////Al Rey Hossana, al Rey aleluya////
Solm Fa
Me ha enseado su grandeza
La#
Re
Me ha mostrado su belleza
Solm
Me visti de su realeza
Fa
La# Re#
Re
De su salvacin yo cantar
Solm Fa
Ha cambiado mi tristeza
La#
Re
Ha ungido mi cabeza
Solm
Me cubri de su belleza
Fa
La# Re#
Re
De su redencin yo cantar
Dom
Solm
Yo me asombro me maravillo
Re
Solm Solm7
Y derramo mi canto en honor a l
Dom
Solm
No hay nadie mas glorioso
La
Re
Tan hermoso como mi Rey

Esta cancin esta genial y esta un poco facil, as que disfrutenla.


Intro: Solm-FaM-Re#M-ReM
Solm FaM
Re#M Resus4 ReM
Al Rey Hossana, al Rey alelu.....ya
Aqui el bajo y la guitarra hacen esto:
e/-------------------B/-------------------G/---------5---------D/----4-7-----8-7--5-A/--5----------------E/-------------------La estrofa tiene estos acordes
Solm
Me ha enseado su grandeza (Aqui biene el Riff 1)
FaM
SibM
Me ha mostrado su belleza (Aqui el Riff 2)
ReM
Solm
Me visti de su realeza
Fa
SibM Re#M ReM
De su salvacin yo cantar....
Solm
Ha cambiado mi tristeza (Aqui el Riff 3)
FaM
SibM
Ha ungido mi cabeza
( el Riff 4)
ReM
Solm
Me cubri de su belleza
Fa
SibM Re#M ReM
De su redencin yo cantar
Estribillo
Dom
Solm
Yo me asombro me maravillo
Re
Solm Solm7
Y derramo mi canto en honor a l
Dom
Solm
No hay nadie mas glorioso
La
Re
Tan hermoso como mi Rey
Riff 1
e/---------------------B/---------------------G/-------2-3-5--3-2----D/--4-5-------------5-3A/---------------------E/---------------------Riff 2
e/----------------------B/--3--3-3-4-4-4-3-------

G/-----------------5-3-2D/----------------------A/----------------------E/-----------------------

Riff 3
e/-----------------B/-----------------G/----2-3--2-------D/--5--------5-3---A/-----------------E/-----------------Riff 4
e/--------------------B/--3--6-4-3----------G/-----------5-3-2----D/-----------------5-4A/--------------------E/---------------------

:Intro:(Bateria)
:Intro:(Bateria e Instrumentos)
:Intro:(Golpes antes de entrar a la cancion)
G]:------------:
D]:------------:
A]:------------:
E]:3-3---3--3-3:
:Intro:
G]:-------------:------------:-----------:-------5-3--:
D]:--5--------5-:----3-3----3:1---1-1---1:---4-7-----7:
A]:---------5---:--3------3--:--1-----1--:5-----------:
E]:3---3-3------:1-----------:-----------:------------:
G]:-------------:------------:------------:------5-3--:
D]:5-----------5:3----------3:1---1-1----1:--4-7-----7:
A]:--5-------5--:--3------3--:--1------1--:5----------:
E]:----3-3------:----1-1-----:------------:-----------:
:Coro:
Al Rey, Hossana!...
G]:-------------:------------:------------:-----------:
D]:5-----------5:3----------3:1---1-1----1:-----------:
A]:--5-------5--:--3------3--:--1------1--:5-----3-1--:
E]:----3-3------:----1-1-----:------------:--2-5-----5:
Al Rey, Hossana!...

G]:------------:------------:------------:------------:
D]:----5-5----5:-----------3:1---1-1----1:------------:
A]:--5------5--:--3---------:--1-----1---:5-5---5-5--5:
E]:3-----------:1---1-1-----:------------:----5----5--:
:Estrofa 1:
Me ha enseado su...
G]:-------------:------------:------------:-----------:
D]:5-----------5:3----------3:8----------8:-----------:
A]:--5-------5--:--3------3--:--8------8--:5---5-5---5:
E]:----3-3------:----1-1-----:----6-------:--5-----5--:
realeza, de su salvacion...
G]:------------:-----------:------------:---------:
D]:5---5--3-3--:1-1--------:------------:---------:
A]:--5--------3:------1-1--:5-5----5-5--:5--------:
E]:------------:----1-----1:-----5-----5:---------:
Ha cambiado mi tristeza...
G]:-------------:------------:-----------:-------------:
D]:5-----------5:3----------3:-----------:-------------:
A]:--5-------5--:--3------3--:1-1---1-1--:5-5---5-5---5:
E]:----3-3------:----1-1-----:----1-----1:----5-----5--:
belleza de su redencion...
G]:------------:-----------:------------:--------------:
D]:5---5--3-3--:1-1--------:------------:--------------:
A]:--5--------3:------1-1--:5-5----5-5--:5-5-5-5-3-5---:
E]:------------:----1-----1:-----5-----5:--------------:
:Coro:
:Estrofa:
:Coro:
:Pre-Intermedio:
Yo me sombro...
G]:----5-5----5--:--------------:-----------:-------3--:
D]:--5----------5:-----5-5---5--:-----------:----------:
A]:3-------------:--5----------5:5---5-5---5:----1----1:
E]:--------------:3-------------:--5-----5--:3-5-------:
No hay nadie...
G]:-----5-5---5--:---------------:-----------:------------:
D]:--5----------5:-----5-5----5--:-----------:------------:
A]:3-------------:--5-----------5:--5-----5--:5-5----5-5-5:
E]:--------------:3--------------:5---5-5---5:------------:
Rey...
G]:-----------:
D]:-----------:
A]:5-5-5-5-5-5:

E]:-----------:
:Intermedio:(Solo de Guitarra)
( x 3 veces )
G]:-----------:----------:-----------:----------:
D]:-----------:----------:-----------:----------:
A]:5-3-5-6-5-3:5-3-5-----:5-3-5-6-5-3:----------:
E]:-----------:----------:-----------:3-1-3-----:
( a la 4 vez )
G]:-----------:----------:-----------:----------:
D]:-----------:----------:-----------:----------:
A]:5-3-5-6-5-3:5-3-5-----:5-3-5-6-5-3:-----1----:
E]:-----------:----------:-----------:3-1------3:
:Coro:
Al Rey!...
G]:------------:
D]:------------:
A]:------------:
E]:3-3-1-3-----:
:Coro:(Varias veces)
:Final:
Aleluya!...
G]:-----------------:----------------:----------:
D]:-----------------:-------------2-3:----------:
A]:5-5-5-5---5-5-5-5:-------3-5-6----:----------:
E]:-----------------:----------------:3-3-3-3---:

(Acordes Originales de la Grabacion)


Sol Do/Sol
Sol
Do
NOS HEMOS CONGREGADO EN ESTE DIA PARA DARLE GLORIA

Sol
Do
LA MUSICA TOCAMOS LAS VOCES ELEVAMOS PARA DARLE HONRA
Sol/Si Do
Re
UN
SON DE JUBILO HA LLENADO ESTE LUGAR
Mim7 Lam7
Sol(add9) Re7sus4
CON EL PROPOSITO DE SU NOMBRE LEVANTAR
Re7
Sol9sus4 Sol
Sol9sus4
OH ALABADLE
ALABADLE
Sol Re9sus4 Re(add9) Do(add9) Re(add9) Do(add9) Re9sus4
SOLO A EL
Re(add9) Do(add9) Re(add9) Sol9sus4 Sol
Sol9sus4
A - DO - RADLE
ADORADLE
Sol
Re7sus4 Re(add9) Do Re(add9) Re6/9
EL HA SIDO FIEL
Re(add9) Do(add9) Re(add9) Do(add9)
CAN - TAD
LA
GLORIA DE SU NOMBRE
Re
Mim7
PUES ES DIGNO DE EXALTAR
Sim7 Do
Do(add9)
Re6/9 Re7sus4
DECLAREMOSLE A LOS PUEBLOS DE SU AMOR Y MAJESTAD
Sol9sus4 Sol(add9) Re7sus4 Re
Do(add9)
ALABADLE
ADORAD
A JESUS EL REY
Sol
Do/Sol Sol
Do
LAS MANOS LEVANTADAS CORAZONES HACIA EL CIELO ESPERANDO
Sol
Do
SIN DUDA LO SABEMOS QUE SU PRESENCIA SE ESTA MANIFESTANDO
Sol Do
Re
AL SENTARSE SOBRE EL TRONO DE NUESTRA ADORACION
Lam7
Sol(add9) Re7sus4
DEJAMOS QUE EL GOBIERNE SOBRE TODA CREACION
(sube 1 tono)
Re(add9) Do(add9)
(A JESUS EL REY)
Mi7
La13sus4 La(add9) La13sus4
OH ALABADLE
ALABADLE
La(add9) Mi9sus4
Mi(add9) Mi9sus4
SOLO A EL
Mi(add9)
La9sus4 La(add9) La9sus4
ADORADLE
ADORADLE
La(add9) Mi(add9) Mi9sus4
EL HA SIDO FIEL
Do(add9) Re(add9)
Mi
La(add9)
CANTAD LA GLORIA DE SU NOMBRE PUES ES DIGNO DE EXALTAR
Do#m7 Re(add9)
Mi6/9 Mi7sus4
DECLAREMOSLE A LOS PUEBLOS DE SU AMOR Y MAJESTAD
La9sus4 La(add9) Mi9sus4 Mi
Re(add9) La
ALABADLE
ADORAD
A JESUS EL REY

INTRO: //F#m Faug/F# C#m/F# //


F#m7
Tu sangre me redimio ,
A
para darme la luz, y la paz
Dmaj7
F#m7

tu vida se derramo,
Esus4
por mi maldad se entrego
F#m7
tu amor incondicional
A
me abrazo con dolor y pasion
Dmaj7
F#m7
mi vida te ofrecere
Esus4 E
mi canto Levantare
F#m7
A
D
E
//alabanza y honor, poder y gloria
F#m7
A
D
E
al cordero de Dios al leon de juda
F#m7
E
al unico digno de honra
F#m7
E
jesucristo mi rey y senor//
D
Bm7
anciano de dia te quiero exaltar
D
Esus4 E
postrado te quiero adorar
INTERMEDIO: //F#m7
F#m7
E

E//

(Acordes Originales de la Grabacion)


Solm7 Rem7 MibMaj9
Fa Solm7 Rem7 MibMaj9
ALEGRENSE
ALEGRENSE
Fa Solm7 Rem7 MibMaj9
Fa Solm7 Rem7 MibMaj9
ALEGRENSE
ALEGRENSE
Resus4/La
Re7
Re7(#9)
LOS QUE CONFIAN EN EL SEOR
Solm7 Rem7 MibMaj9
ALEGRENSE
Fa Solm7 Rem7 MibMaj9
Fa Solm7 Rem7 MibMaj9
ALEGRENSE
ALEGRENSE
Fa Solm7 Rem7 MibMaj9
Fa Solm7 Rem7 MibMaj9
ALEGRENSE
ALEGRENSE
Resus4
Re7
Re7(#9)
LOS QUE CONFIAN EN EL SEOR
Solm7 Rem7 Solm7
ALEGRENSE
Sib(add9)

Dom7

CON VOCES DE JUBILO


Solm7
Solm7/Fa
EXALTEN SU NOMBRE
MibMaj9
Dom7
PORQUE EL NOS DEFIENDE
Resus4/La
ALEGRENSE

Re7(#9)

Solm7
ALEGRENSE....
(GUITARRA & BASS)
//Sol(Omit3) Re(Omit3) Mib(add9) Fa(Omit3)

Sol(Omit3) Re(Omit3) Mib(Omit3) Fa(Omit3)//

F Bb F C F
Bb F C F
/Aleluya, Aleluya, Aleluya, Aleluya./

Bb
F
C F
/Mi Dios es bueno, Aleluya./

(misma secuencia anterior)


/Me ha salvado, Aleluya.
/Me ha perdonado, Aleluya./
/Me ha rescatado, Aleluya./
D
G
Em
C
D
//Aleluya, Aleluya, Ale - luya a nuestro Dios//
D
D+ D6
D7
Todos sus siervos, Los que le temen
G
D/F#
Em
G
Los pequeos y grandes, Alabad a nuestro Dios
D
D+ D6
D7
El es Dios Santo, Justos sus juicios
G
D/F#
Em
G
Es Fiel y Verdadero, Alabad a nuestro Dios
Coro...
D
D+ D6
D7
Demosle gloria, Demosle honra
G
D/F#
Em
G
La hora ha llegado, Al Cordero exaltad
D
D+ D6
D7

Su trono es firme, Siempre eterno


G
D/F#
Em
G
Cetro de justicia, Es el cetro del gran Rey
Coro...
PUENTE
Em
G
D
Gran multitud estruendo de muchas aguas
Em
G
D
Levanten su voz den voces de jubilo al Rey
Em
G
D
Del norte al sur declaren por siempre su gloria
G
Em
A
El es nuestro Dios todopoderoso gran Rey

Coro...

Este canto empieza como con un sintetizador u organo


de fonodo cuando termina el Aleluya entra la guitarra
D
G
Em C
D
/Aleluya, aleluya, aleluya a nuestro Dios/
D
D#5
D/B
D7sus4
Todos sus siervos, los que le temen
G
D
Em
A
Los pequeos y grandes, alabad a nuestro Dios
D
D#5 D/B
D7sus4
l es Dios Santo, justos son sus juicios
G
D
Em
A
Es fiel y verdadero, alabad a nuestro Dios.
D
G
Em C
D
/Aleluya, aleluya, aleluya a nuestro Dios/
D
D#5 D/B
D7sus4
Dmosle gloria, dmosle honra
G
D
Em
A
La hora ha llegado, al cordero exaltad
D
D#5 D/B
D7sus4
Su trono es firme, siempre eterno
G
D
Em
A
Centro de justicia, es el centro del Gran Rey.
D
G
Em C
D
/Aleluya, aleluya, aleluya a nuestro Dios/
G
Em
D
Gran multitud estruendo de muchas aguas
G
D
Levantan su voz den voces de jubilo al Rey

G
D
Del Norte al Sur por siempre su gloria
G
A
l es nuestro Dios Todopoderoso Gran Rey.
D
G
Em C
D
/Aleluya, aleluya, aleluya a nuestro Dios/

intermedio:
despues del Puente,cuando termina de decir:
todopoderoso gran Rey,empieza esto:
aleluya
aleluya
aleluya a nuestro Dios
e-------------------------------------------------------------------------------------B5-7-8-10-12-14--1517/19-/1510-14-15-15-----15-19-19
G-------------------------------------------14--------------------------------------aleluya
aleluya
aleluya
e------------17/19-19v-17-15-14--------------------------------B15--------------------------15-----15-17/1917/19/18/19G---------------------------------14--------------------------------a nuestro Dios
coro
e---------------------------B17-15-15--10-10-10
G--------------------------cuando repite el coro hace esto:
e3-3-2-0
B-----------2
G-----------/:deslizar la cuerda
v:vibrar la cuerda

Am
F
Alza tus y mira
D
E
la cosecha est lista,
Am
G
el tiempo ha llegado
F
E
la mies est madura.

Am
F
Esfurzate y se valiente
D
E
levntate y predica
Am
G
a todas las naciones
F
E
que Cristo es la vida.
FG
Am
G
Am
Y ser llena la Tierra de su gloria
FG
E
Am
se cubrir como las aguas cubren la mar.
E
Am
No, no hay otro Nombre
E
Am
dado a los hombres
G Am F
E

Jesucristo es el Seor.
Este es el intro de la cancion espero que les guste
e---------------5-7-8-10-8-7-5
B----------------------------G----------------------------D----------------------------A-0-2---0-2-2---------------E----3-4-----3-4