You are on page 1of 42

CLASSICAL GUITAR

TABS

EL MAJO DE LA GUITARRA RAMON BAYEU


Federico Chopin

Obras
1- Nocturno opus 9 nro. 2

2-Theme from Etude opus 10 nro. 3

3- Valse opus 64 nro. 2

4-Prelude en A major opus 28 nro 7


Federico Chopin
Nocturno Opus 9 Número 2

|--|------------------------|---------------3-----1-----------|
|--|3---3---1-3-1---3-----3-|3-0----------------3-----0-4-1-3-|
|--|--3-3---------3-3-3-3-3-|----00/1-0---0---0-0---1-----0---|
|3-|--0-----4-----0-----0---|--3--------4-----3---------------|
|--|1-----1-----1-----0-----|---------------2-----3-3---3-----|
|--|------------------------|3--------------------------------|

|------------------------|--5-3-1-----------------------|
|1-----3---------3-----2-|--------4-3-4---------3-----3-|
|----2-----2-3-3-0-0-3-0-|--3-3-2-------0-2-3-3-3---3-3-|
|--1-1---0-0---0---------|3-----1-------------0-----0---|
|--0-----3-----------4---|------------------1-----1-----|
|1-----2-----3-----0-----|1-----1-----------------------|

|-------------------------------------------|---------------4-3-1-------------
|3---3-1-3-1/3/1-0-1-3-1---3---1---1-------1|3-----------4-3---3----0-4-1-3---
|--3-3-------------------3-3-----3---3/2/3--|---------5-4---------1-1---0-----
|--0-------1-------4-----0-------3----------|3-4-5-6-5--------------------1---
|1-1---1---------------1-----0--------------|-------------------3-3---3------
|-------------------------------------------|3--------------------------------

|----------------------------------------------------------------|
|1-3-1-3-1-3-1-3-1-3-1-3-1-3-1-3-1-3-1-3-0/1/2/3-3-------3-----2-|
|------------------------------------------------2-2-3-3-0-0-3-0-|
|------------------------------------------------0-0---0---------|
|------------------------------------------------------------4---|
|1---------------------------------------------2-----3-----0-----|

|--5-3-1-----------------------|------------------------|
|--------4-3-4---------3-------|1-----3---1-1---------1-|
|--3-3-2-------0-2-3-3-3---2-3-|----2---2-------0-0-0---|
|3-----1-------------0-----0-3-|----------------------2-|
|------------------1-----1-----|--3-----3-----3-----3---|
|1-----------------------------|1-----1-----0-----0-----|
|----------------------------|1-----0-----------------|-----------------------
|------------1-------3-----3-|3-0-3---0-3-1-----------|-----------------------
|3-3-3-3-2-3---3-3-3-3---3-3-|1-1---0-0-------0-2-----|3-0-3-2-0-2-------0-0-2
|1-1---4-----------0---3-0---|3---3-3---3-2---0-3-0-0-|--0-0---2-2-3-4-4-3-2-1
|----------------1-----1-----|2-----2-----3-3-----0-0-|----1-3-1-3-0-4-2-2-1-3
|----------------------------|------------------------|3-----------1-0-------1

|----------------------------------------------------|
|------3---------------3-1-1---------1---1---------1-|
|----3-------------1-2-2---------3-----3---3-2-3-----|
|0-3-----3-2-3-4-3-----1-------0-3---3-----------3---|
|--------1-----1-------------1-----0-----------------|
|----------------------------------------------------|

|------------------4-3---1-----------|
|3-------------4-3-----3-----0-4-1-3-|
|----------5-4-------------1-1---0---|
|3-4-5-6-5---------------------------|
|------------------------3-3---3-----|
|3-----------------------------------|

|----------------------------------------------------------------|
|1-3-1-3-1-3-1-3-1-3-1-3-1-3-1-3-1-3-1-3-0/1/2/3-3-------3-----2-|
|------------------------------------------------2-2-3-3-0-0-3-0-|
|------------------------------------------------0-----0---------|
|------------------------------------------------------------4---|
|1---------------------------------------------2-----3-----0-----|

|--5-4-3-2-1-0---------------------|-----------|
|--------------4-1---------3-1-----|---3-------|
|------------------2-----2-2---3-3-|-3-3---2-3-|
|3-------------------4-1-----------|-0---------|
|--------------------------------1-|-----1-0-1-|
|1---------------------1-----------|-----------|

|------------------------|----------------------------|
|1---1---1-------1-----1-|------------1-------3-----3-|
|--2-----2-----0-----0-0-|3-3-3-3-2-3---3-3-3-3---3-3-|
|------0-------------2-2-|1-1---4-----------0---3-0---|
|----------3-3-----------|----------------1-----1-----|
|1-----------0-----3-----|----------------------------|
|1-----0-----------------|------------------------|
|3-0-3---0-3-1-----------|------------------------|
|1-1---0-0-------0-2-----|3-0-3-2-0-2-------0-0-2-|
|3---3-3---3-2---0-3-0-0-|--0-0---2-2-3-4-4-3-2-1-|
|2-----2-----3-3-----0-0-|----1-3-1-3-0-4-2-2-1-3-|
|------------------------|3-----------1-0-------1-|

|----------------------------------------------------|
|------3---------------3-1-1---------1---1---------1-|
|----3-------------1-2-2---------3-----3---3-2-3-----|
|0-3-----3-2-3-4-3-----1-------0-3---3-----------3---|
|--------1-----1-------------1-----0-----------------|
|----------------------------------------------------|

|------------------4-3---1-----------|
|3-------------4-3-----3-----0-4-1-3-|
|----------5-4-------------1-1---0---|
|3-4-5-6-5---------------------------|
|------------------------3-3---3---3-|
|3-----------------------------------|

|----------------------------------------------------------------|
|1-3-1-3-1-3-1-3-1-3-1-3-1-3-1-3-1-3-1-3-0/1/2/3-3-------3-----2-|
|------------------------------------------------2-2-3-3-0-0-3-0-|
|------------------------------------------------0-----0---------|
|------------------------------------------------------------4---|
|1---------------------------------------------2-----3-----0-----|

|---5-4-3-2-1-0-------------------------|------------------------|
|---------------4-------------3-1-----3-|------1---1-3-----------|
|-----------------------0-1-2-----3-3-3-|3-------3---------3-----|
|3----------------2-3-4---1---------0---|--1-4---4-----0-3-3-0-3-|
|---------------------------------1-----|1-----1-----1-----1-----|
|1--------------------------------------|------------------1-----|
|--------------------------------6-5-3-|1--0------------------------108-6-5-3
|------------------3---------------3---|----4-----------1---1----------------
|3-------5-3-5-3-5-----3-5-3-2-3---3---|--2-2------0-2-3--3---3-2-3----------
|--1-4-----4---4-----3-3---------------|--3-3-2-3-4----0---------------------
|1-----1-----------1-------------------|1--------------1---------------------
|--------------------------------6-----|-------------------------------------

|2-1-0-0-----------------------|------------------------------------|
|--1-----4-4-3-3-1-------------|----------------------3-----3-----3-|
|--2-------2---2---3-----3-----|3-----3-5-3-5-3-5-3-5-----3-3-3-3-3-|
|----------1---1-----0-3-3-0-3-|1-1 4-----4---4---4-----0-3---3-0---|
|1-----1-----------1-----------|----------------------1-1-----------|
|------------------------------|------------------------------------|

|----------------------2-6-8-10------1-6-6-5-3-|
|--------------------4-------------3-----------|
|3-----------------3---------7-3-3---------3-3-|
|1-1-3-1-3-1-0-1-4-----------------------------|
|----------------------------------------3-----|
|--2-------------------------------------------|

|2-1-0---------6-------3-|2-----------1-----1-|
|------4-3-----3-----1-1-|----------1-----1---|
|--2-----2-2-3-3-3---3-0-|2-------2-----2-----|
|--1-----4-----------2-2-|1-----1-------------|
|------------------------|----3---------------|
|1-----2-----3-----0-----|1-1-----------------|

|-2-1-3-0-2-1-3-0-2-1-3-0-2-1-3-0-2-1-3-0-2-1-3-
|-----------------------------------------------
|-----------------------------------------------
|-----------------------------------------------
|-----------------------------------------------
|-----------------------------------------------

0-2-1-3-0-2-1-3-0-2-1-3-0-2-1-3-0-|
----------------------------------|
----------------------------------|
----------------------------------|
----------------------------------|
----------------------------------|
|5-3-1-0---------------------|---------------------------|6-------------||
|--------4-3-1---------------|----3-----3-----3-----3----|------ -------||
|--------------2-3-0---------|3-----3-----3-----3-----3--|3-------3-----||
|--------------------3-1-----|--3-----3-----3-----3------|---- ---0-----||
|--------------------------0-|5-----5-----5-----5-----5--|-- -----1-----||
|------------------------3---|---------------------------|--------------||

Theme from Etude Opus 10 No 3

E||------------------|
B||------------------|
G||------------------|
D||--------------2---|
A||------------------|
E||------------------|

------------------|------------------|----------2-----0-|------------------|
----------0-------|----2-2p0-2-------|----3-3p2-3---0---|--3-2-----0-------|
--2---1h2-1-------|--1---1-------2---|------2-----1-----|------1h2-1-------|
----2-------2p0h2-|------0-----2---2-|------2-----------|------------2-0-2-|
--0---------------|----------0-------|--0---------------|--0---------------|
----------0-------|------0-----------|----------0-------|----------0-------|

-----------------|------------0-----|--2-----------------|------------0-------|
---2-2p0---------|--2-3-0-2-3---2-3-|------0-------4-2p0-|--0---4-2p0-----0---|
-1-------2-------|--0---------------|----2---2---2-------|----2---------1-----|
-----------2---2-|----------0-------|--0-------2---------|--4---------2-----2-|
---------0---4---|--0---------------|--------------------|--------------------|
-0---------------|------------------|--------------------|--------------------|

------------------|------------------|----------2-----0-|------------------|
----------0-------|----2-2p0-2-------|----3-3p2-3---0---|--3-2-----0-------|
--2---1h2-1-------|--1---1-------2---|------2-----1-----|------1h2-1-------|
----2-------2p0h2-|------0-----2---2-|------2-----------|------------2p0h2-|
--0---------------|----------0-------|--0---------------|--0---------------|
----------0-------|------0-----------|----------0-------|----------0-------|
------------------|--0-2-2p0---0-----|--4/5-5\4-2-4-1-2-|--5-7-4-5-7-9-5-7-|
----2-2p0---------|--2-------3---2h3-|--0-------2-------|--4-------6-------|
--1-------2-------|--0-------2-------|--4-------2-------|--4-------7-------|
------------2---2-|----------0-------|--3-------4-------|--4-------0-------|
----------0---4---|--0---------------|--4---------------|------------------|
--0---------------|------------------|------------------|------------------|

-9------------7-5---|--4-------5-4-2---|------------------|------------------|
---10---10--------7-|----3---3-------2-|--5-------7-------|--2---------------|
------9-------------|------4-----------|----6---6---9-7\2-|----2---2---4-2---|
-----------11-------|------------------|------6---0-------|------2---------2-|
--------------------|------------------|--4---------------|--0-------4-------|
-0------------------|--0-------2-------|------------------|------------------|

----------------|------------0-----|--0---------------|--0---------------|
----------2-----|----2---------3---|------------5-----|--------------0---|
--2-----2-------|----2-----------1-|--------------2---|------------1-----|
------2---------|----2-------------|----------------2-|----------4-----2-|
----0-----------|--0-----0-2-------|----4-4-2-4-------|----5-5-4---------|
-------------0--|------4-----------|------------------|------------------|

------------0-----|--0---------------|--0-2-2p0---------|--4/5-5\4-2-4-1-2-|
--------------3---|----------------2-|--2-------3-5-2h3-|--0-------2-------|
----------------1-|--------------2---|--0-------2-------|--4-------2-------|
--0---------------|------------2-----|----------0-------|--3-------4-------|
----4---0-2-------|----4-4-2-0-------|--0---------------|--4---------------|
------4-----------|------------------|------------------|------------------|

--5-7-4-5-7-9-5-7-|--9-------------7p5---|--4-------5-4-2---|
--4-------6-------|--10-10---10--------7-|----3---3-2-----2-|
--4-------7-------|--9-----9----11-------|------4-----------|
--4-------0-------|----------------------|------------------|
------------------|----------------------|------------------|
------------------|--0-------------------|--0-------2-------|

------------------|------------------|------------------|------------------|
--5-------7-------|--2---------------|--2---------------|--2---------------|
----6---6---0-7\2-|------2-----4-2---|------2-----4-2---|------2-------2---|
------6---0-------|----2---2-0-----3-|----2---2-0-----3-|----2---2---2---2-|
--4---------------|--0---------------|--0---------------|--0-------4-------|
------------------|------------------|------------------|------------------|
------------------|-----------|--5--------||
------------0-----|-----------|--5--------||
------2-------2---|-----------|--6--------||
----2---2-------2/|--7--------|--7--------||
--0-------4-------|-----------|--0--------||
------------------|-----------|-----------||

VALSE OPUS 64 Número 2

e |-------|--3--------|--2--------|--------0--------2--|
B |----0--|-----0--0--|-----2--2--|-----0-----1--0--0--|
G |-------|-----0--0--|-----3--3--|-----2-----2--2--2--|
D |-------|-----2--2--|-----2--2--|-----------------1--|
A |-------|-----------|-----------|--2-----------------|
E |-------|--0--------|--2--------|--------------------|

e |-------0--------0--|--0--------|-----------|--------------------|
B |----0-----1--0--0--|-----1--1--|--4--------|--------0--------3--|
G |----2-----2--2--0--|-----0--0--|-----2--2--|-----0-----2--0--0--|
D |----------------2--|-----------|-----4--4--|-----3-----3--3--3--|
A |-------------------|-----------|-----------|-----------------2--|
E |-0-----------------|--3--------|--3--------|--3-----------------|

e |-------------------|-----------|--------------------|--0--------|
B |-------0--------1--|--1-----0--|-----0--0--1--1--2--|--------3--|
G |----0-----2--0-----|-----2--2--|--0-----------------|-----5--5--|
D |----3-----2--2--2--|-----1--1--|--------------------|-----4--4--|
A |-3-----------------|--2--------|--------------0-----|--5--------|
E |----------------2--|-----------|--0-----------------|-----------|

e |----------0--0--1--|--1--2--2--7--7--6--|--6--5--5--4--4--3--|
B |-0--3--3-----0-----|--0-----------------|--------------------|
G |-0-----------0-----|--0-----------------|--------------------|
D |-------------------|--------------------|--------------------|
A |-------------4-----|--------------------|--------------------|
E |-------------------|--2-----------------|--------------------|
e |-3--2--2--1--1--0--|--0-----------------|
B |-------------------|-----4--4--3--3--1--|
G |-------------------|--------------------|
D |-------------------|--------------------|
A |-------------------|--------------------|
E |-------------------|--------------------|

e |-3--------|--2--------|--------0--------2--|--------0--------0--|
B |----0--0--|-----2--2--|-----0-----1--0--0--|-----0-----1--0--0--|
G |----0--0--|-----3--3--|-----2-----2--2--2--|-----2-----2--2--0--|
D |----2--2--|-----2--2--|-----------------1--|-----------------2--|
A |----------|-----------|--2-----------------|--------------------|
E |-0--------|--2--------|--------------------|--0-----------------|

e |-0--------|-----------|--------------------|--------------------|
B |----1--1--|--4--------|--------0--------3--|--------0--------1--|
G |----0--0--|-----2--2--|-----0-----2--0--0--|-----0-----2--0-----|
D |----------|-----4--4--|-----3-----3--3--3--|-----3-----2--2--2--|
A |----------|-----------|-----------------2--|--3-----------------|
E |-3--------|--3--------|--3-----------------|-----------------2--|

e |----------|--------------------|--2-----0--|--------------------|
B |-1-----0--|-----2--2--3--3--4--|-----2--2--|-----------0--0--1--|
G |----2--2--|--1-----------------|-----0--0--|-----2--2-----------|
D |----1--1--|--2-----------------|-----------|--0-----------------|
A |-2--------|--------------------|--0--------|--------------------|
E |----------|--0-----------------|-----------|--------------------|

e |-0--------|--------------------------|--------------------|
B |-------3--|-----1--0--1--0-----------|--------------------|
G |----0--4--|-----------------2--0--2--|--3--4-----0--0-----|
D |----3--3--|--------------------------|--------2-----1--4--|
A |----------|--0-----------------------|--------------2-----|
E |-3-----4--|--------------------------|--------3-----------|

e |----0-----|
B |----0--0--|
G |----0-----|
D |-2--------|
A |----------|
E |-0--------|
e |-7--8--7--5--------|--5--7--5-----------|--3--5--3--2--------|
B |-------------7--0--|-----------8--5--0--|--------------4--0--|
G |-------------------|--------------------|--------------------|
D |-------------------|--------------------|--------------------|
A |-6-----------------|--7-----------------|--2-----------------|
E |-------------------|--------------------|--------------------|

e |-2--3--2--0--------|--0--2--0-----------|--0--2--0-----------|
B |-------------1-----|-----------1-----1--|-----------0-----0--|
G |----------------0--|--------------2-----|--------------0-----|
D |-------------------|--------------------|--------------------|
A |-3-----------------|--0-----------------|--------------------|
E |-------------------|--------------------|--0-----------------|

e |-------------------|--------------3--5--|
B |-0--------0--1--0--|--------4--5--------|
G |-------------------|--3--4--------------|
D |-------4-----------|--------------------|
A |----2--------------|--------------------|
E |-------------------|--0-----------------|

e |-7--8--7--5--------|--5--7--5-----------|--3--5--3--2--------|
B |-------------7--0--|-----------8--5--0--|--------------4--0--|
G |-------------------|--------------------|--------------------|
D |-------------------|--------------------|--------------------|
A |-6-----------------|--7-----------------|--2-----------------|
E |-------------------|--------------------|--------------------|

e |-2--3--2--0--------|--------------------|--------------0--1--|
B |-------------1-----|--1-----------------|-----0--1--3--------|
G |----------------0--|--------------0--2--|--3-----------------|
D |-------------------|-----0--2--3--------|--------------------|
A |-3-----------------|--0-----------------|--------------------|
E |-------------------|--------------------|--------------------|

e |-2--3--4--5--6--7--|--12-------|
B |-------------------|-----0--0--|
G |-------------------|-----0-----|
D |-------------------|-----------|
A |-------------------|-----------|
E |-------------------|--0--------|
e |-7--8--7--5--------|--5--7--5-----------|--3--5--3--2--------|
B |-------------7--0--|-----------8--5--0--|--------------4--0--|
G |-------------------|--------------------|--------------------|
D |-------------------|--------------------|--------------------|
A |-6-----------------|--7-----------------|--2-----------------|
E |-------------------|--------------------|--------------------|

e |-2--3--2--0--------|--0--2--0-----------|--0--2--0-----------|
B |-------------1-----|-----------1-----1--|-----------0-----0--|
G |----------------0--|--------------2-----|--------------0-----|
D |-------------------|--------------------|--------------------|
A |-3-----------------|--0-----------------|--------------------|
E |-------------------|--------------------|--0-----------------|

e |-------------------|--------------3--5--|
B |-0--------0--1--0--|--------4--5--------|
G |-------------------|--3--4--------------|
D |-------4-----------|--------------------|
A |----2--------------|--------------------|
E |-------------------|--0-----------------|

e |-7--8--7--5--------|--5--7--5-----------|--3--5--3--2--------|
B |-------------7--0--|-----------8--5--0--|--------------4--0--|
G |-------------------|--------------------|--------------------|
D |-------------------|--------------------|--------------------|
A |-6-----------------|--7-----------------|--2-----------------|
E |-------------------|--------------------|--------------------|

e |-2--3--2--0--------|--------------------|--------------0--1--|
B |-------------1-----|--1-----------------|-----0--1--3--------|
G |----------------0--|--------------0--2--|--3-----------------|
D |-------------------|-----0--2--3--------|--------------------|
A |-3-----------------|--0-----------------|--------------------|
E |-------------------|--------------------|--------------------|

e |-2--3--4--5--6--7--|--12-|
B |-------------------|-----|
G |-------------------|-----|
D |-------------------|-----|
A |-------------------|-----|
E |-------------------|--0--|
e |-------|--4--------|--4-----2--|--------0--|-----------|
B |-------|-----0--0--|-----0--1--|-----2-----|--4--2-----|
G |----1--|-----1--1--|-----1--1--|-----1-----|--1-----1--|
D |-------|-----2--2--|-----2-----|-----2-----|--2-----3--|
A |-------|-----------|-----------|-----------|-----------|
E |-------|--0--------|--0--------|--0--------|-----------|

e |----------|--5-----4--|-----2--0--|--------4--2--------|
B |-------2--|-----2--3--|-----4-----|--4--5--------4--2--|
G |-2--------|-----2--2--|-----2-----|--------------------|
D |-4--------|-----------|--4--------|--------------------|
A |----4-----|-----------|-----------|--------------------|
E |----------|--2--------|-----------|--------------2-----|

e |-------7--|-----5--4--|--4--2--12-|--------12-|-----11----9--|
B |-0--------|-----6-----|-----2-----|-----------|-----8--8-----|
G |----------|-----4-----|-----2-----|-----11----|-----9--9-----|
D |----6-----|-----------|-----------|-----11----|--8-----------|
A |----------|-----------|--0--------|--0--------|--------------|
E |-4--------|--4--------|-----------|-----------|--------------|

e |-11-9--8--|--7--6--5--|--4-----0--2--0-----0-----|
B |----9-----|-----------|-----0-----------4-----2--|
G |----9-----|-----------|--------------------------|
D |-9--------|-----------|--------------------------|
A |----------|-----------|--------------------------|
E |----------|-----------|--------------------------|

e |-------4--|--------2--|--------0--|--------------------------|
B |-0--------|-----0--1--|-----2-----|--4--2--------------2--1--|
G |----1-----|-----1--1--|-----1-----|-----------1--2--1--------|
D |----2-----|-----2-----|-----2-----|--------4-----------------|
A |----------|-----------|-----------|--------------------------|
E |-0--------|--0--------|--0--------|--0-----------------------|

e |----------5-----|--------4--|-----2--0-----------|
B |-0-----------2--|-----0-----|-----4-----4--5--7--|
G |----3--2-----2--|-----2-----|-----2--------------|
D |----------------|--4--------|--4-----------------|
A |----------------|-----------|--------------------|
E |----------------|-----------|--------------------|
e |----------------|--------7--|-----5--4--|--4--2--0--|--------12-|
B |-5--4--5--2--4--|--0--------|-----6-----|-----2-----|-----2-----|
G |----------------|-----------|-----4-----|-----2-----|-----0-----|
D |----------------|-----6-----|-----------|-----------|-----2-----|
A |----------------|-----------|-----------|--0--------|--1--------|
E |----------2-----|--4--------|--4--------|-----------|-----------|

e |----11-9--|--7--6--5--|--4--2--0--|-----0--2--0--3-----|
B |-11----8--|-----------|-----------|--4-----------------|
G |-12----9--|-----------|-----------|-----------------3--|
D |-11----8--|-----------|-----------|--------------------|
A |----------|-----------|-----------|--------------------|
E |----------|-----------|-----------|--------------------|

e |-7--8--7--5--------|--5--7--5-----------|--3--5--3--2--------|
B |-------------7--0--|-----------8--5--0--|--------------4--0--|
G |-------------------|--------------------|--------------------|
D |-------------------|--------------------|--------------------|
A |-6-----------------|--7-----------------|--2-----------------|
E |-------------------|--------------------|--------------------|

e |-2--3--2--0--------|--0--2--0-----------|--0--2--0-----------|
B |-------------1-----|-----------1-----1--|-----------0-----0--|
G |----------------0--|--------------2-----|--------------0-----|
D |-------------------|--------------------|--------------------|
A |-3-----------------|--0-----------------|--------------------|
E |-------------------|--------------------|--0-----------------|

e |-------------------|--------------3--5--|
B |-0--------0--1--0--|--------4--5--------|
G |-------------------|--3--4--------------|
D |-------4-----------|--------------------|
A |----2--------------|--------------------|
E |-------------------|--0-----------------|

e |-7--8--7--5--------|--5--7--5-----------|--3--5--3--2--------|
B |-------------7--0--|-----------8--5--0--|--------------4--0--|
G |-------------------|--------------------|--------------------|
D |-------------------|--------------------|--------------------|
A |-6-----------------|--7-----------------|--2-----------------|
E |-------------------|--------------------|--------------------|
e |-2--3--2--0--------|--------------------|--------------0--1--|
B |-------------1-----|--1-----------------|-----0--1--3--------|
G |----------------0--|--------------0--2--|--3-----------------|
D |-------------------|-----0--2--3--------|--------------------|
A |-3-----------------|--0-----------------|--------------------|
E |-------------------|--------------------|--------------------|

e |-2--3--4--5--6--7--|--12-------|
B |-------------------|-----0--0--|
G |-------------------|-----0-----|
D |-------------------|-----------|
A |-------------------|-----------|
E |-------------------|--0--------|

e |-7--8--7--5--------|--5--7--5-----------|--3--5--3--2--------|
B |-------------7--0--|-----------8--5--0--|--------------4--0--|
G |-------------------|--------------------|--------------------|
D |-------------------|--------------------|--------------------|
A |-6-----------------|--7-----------------|--2-----------------|
E |-------------------|--------------------|--------------------|

e |-2--3--2--0--------|--0--2--0-----------|--0--2--0-----------|
B |-------------1-----|-----------1-----1--|-----------0-----0--|
G |----------------0--|--------------2-----|--------------0-----|
D |-------------------|--------------------|--------------------|
A |-3-----------------|--0-----------------|--------------------|
E |-------------------|--------------------|--0-----------------|

e |-------------------|--------------3--5--|
B |-0--------0--1--0--|--------4--5--------|
G |-------------------|--3--4--------------|
D |-------4-----------|--------------------|
A |----2--------------|--------------------|
E |-------------------|--0-----------------|

e |-7--8--7--5--------|--5--7--5-----------|--3--5--3--2--------|
B |-------------7--0--|-----------8--5--0--|--------------4--0--|
G |-------------------|--------------------|--------------------|
D |-------------------|--------------------|--------------------|
A |-6-----------------|--7-----------------|--2-----------------|
E |-------------------|--------------------|--------------------|
e |-2--3--2--0--------|--------------------|--------------0--1--|
B |-------------1-----|--1-----------------|-----0--1--3--------|
G |----------------0--|--------------0--2--|--3-----------------|
D |-------------------|-----0--2--3--------|--------------------|
A |-3-----------------|--0-----------------|--------------------|
E |-------------------|--------------------|--------------------|

e |-2--3--4--5--6--7--|--12-||
B |-------------------|-----||
G |-------------------|-----||
D |-------------------|-----||
A |-------------------|-----||
E |-------------------|--0--||

Prelude in A major Opus 28 No 7

e|-------------------------|-------------------------|-----------------2-------|
B|-------------------------|-2-----3-0-------0-------|-0---------------3-------|
G|-------------------------|---------1-------1-------|-1-----------------------|
D|-----------------2-------|---------0-------0-------|-0-----------------------|
A|-------------------------|-------------------------|-------------------------|
E|-------------------------|-0-------0-------0-------|-0-----------------------|
p dolce

e|---------5-------5-------|-5-----------------------|-------------------------|
B|-4-----5-----------------|-----------------2-------|---------3-------3-------|
G|-5-----6---------6-------|-6-----------------------|-3-----4-----------------|
D|-------------------------|-----------------2-------|-------0-4-------4-------|
A|-0-------7-------7-------|-7-----------------------|-4-------2-------2-------|
E|---------5-------5-------|-5-----------------------|-0-------0-------0-------|

e|-------------------------|-------------------------|-------------------------|
B|-3-----------------------|---------2-------2-------|-2-----------------------|
G|-----------------1-------|-1-----2-----------------|-------------------------|
D|-4---------------0-------|-0-------2-------2-------|-2---------------2-------|
A|-2-----------------------|-0-----4-0-------4-------|-4-----------------------|
E|-0-----------------------|---------0-------0-------|-0-----------------------|
e|-------------------------|-----------------2-------|---------9-------9-------|
B|-2-----3-0-------0-------|-0---------------3-------|-4-----5-10------10------|
G|-1-------1-------1-------|-1-----------------------|-5-----6-9-------9-------|
D|---------0-------0-------|-0-----------------------|---------7-------7-------|
A|-------------------------|-------------------------|-0-----------------------|
E|-0-------0-------0-------|-0-----------------------|-------------------------|
(rfz ma con dolcezza) (all.)

e|--9----------------------|---------2-------2-------|-2-----------------------|
B|--11--------------2------|-2-----3-----------------|-------------------------|
G|--9---------------3------|-3-----4---------2-------|-1---------------1-------|
D|--11---------------------|---------0-------0-------|-0---------------0-------|
A|--9----------------------|-2-----------------------|-2-----------------------|
E|-------------------------|---------2-------2-------|-0-----------------------|

e|----------5-------5------|-5----------------------||
B|--0-------2-------2------|-2----------------------||
G|-----2----2--------------|------------------------||
D|--0-------2-------2------|-2----------------------||
A|-----4----0-------0------|-0----------------------||
E|--5-------0-------0------|------------------------||
(dolciss.)
Johann Sebastian Bach

Obras.
1- Bourree from Lute Suite no. 1 in Em.

2- Minuet in G.

Version in A.

3- Jesu Joy of Man´s desiring

Version 1

Version 2
Johann Sebastian Bach
Bourree from Lute Suite No 1 in Em

e|--0--2---|---3----2--0--------0--2--|-------------------------|
B|---------|---------------4----------|--0----2--4--5----3--1---|
G|---------|*-------------------------|-------------------------|
D|---------|*-------------------------|-------------------------|
A|---------|--------0------2----0-----|-------------------------|
E|--3--2---|---0----------------------|--3----2-----0----2------|

e|----------------------|--------------------0--2--|--3----2--0-------0--2--|
B|-0--------------------|-0------------------------|-------------4----------|
G|------2--0-------0--2-|----2--0------------------|------------------------|
D|------------4---------|-----------4--2-----------|------------------------|
A|------0-----2----0----|-------2------------------|-------0-----2----0-----|
E|-3--------------------|-3------------0--2--3--2--|--0---------------------|

e|-----------------------|---------------------|--------------------0--2---|
B|--0----2--4--5----3--1-|--0------------------|---------------------------|
G|-----------------------|------2--0---------0-|--0-----------------------*|
D|-----------------------|------------4--------|--0-----------------------*|
A|-----------------------|------3-----5---5----|--2------------------------|
E|--3----2-----0----2----|--3------------------|--3-----------------3--2---|

e|------------------------|--------------------3----|-----------------------|
B|------------------0-----|---3-------1--0--------3-|--5----0--3------------|
G|--0------------------0--|*-------2----------------|-------------5----4--2-|
D|--0---------------------|*-------0----------------|------------------0----|
A|--2---------------------|--------------------2----|--3----------0---------|
E|--3---------------3-----|---2----------3----------|-------4---------------|

e|-----------------------|-------------------------|-------3-----------------|
B|-----------------------|-------------------3-----|--0-------3---5----0--3--|
G|--1---2--4--5----4--2--|-2--------------------2--|-------------------------|
D|--2---------2----------|-------------------0-----|-------------------------|
A|------0----------------|-0--2--0-----------------|-------2------3----------|
E|-----------------0-----|----------3--2-----------|--3----------------4-----|
e|-------5-------------0--|------------------------|------------------7-----|
B|----------5--7----2-----|--3----2--0----------0--|-0-------------------7--|
G|--5---------------------|-------------3----------|------------------------|
D|------------------------|-------2-----4----------|------------------------|
A|--0----4-----5----1-----|--2---------------------|-2--1--2--4--6----------|
E|------------------------|------------------2-----|------------------7-----|

e|-------------5----------|-------------3----------|-------5--0--2----------|
B|--9----7--5-------5--8--|--7----5--3-------3--6--|--5---------------2--5--|
G|------------------------|------------------------|------------------------|
D|-------0----------------|--0---------------------|------------------------|
A|--7----------4----0-----|-------3-----2----------|--3----2-----0----------|
E|------------------------|------------------3-----|------------------2-----|

e|-------------------0-----|--------------------------|
B|--4----0--------------0--|--1-----3-----0-----1-----|
G|-------------------------|-----------2-----------0--|
D|-------------------------|-----2--4--------1--2-----|
A|--2-------3--2--0--------|--0-----------------------|
E|-------------------4-----|--------------3-----------|

e|-------------------------|------------------------|-----------------------|
B|--------0----------------|------------------------|----------------0------|
G|--2----------------------|------------------------|-------------------0--*|
D|-----------4--5----4--2--|--1----2--4--5--454--2--|--2-------------------*|
A|-----4--6----------0-----|--2----0-----2----------|-----------------------|
E|--2-----------0----------|------------------------|--0-------------3------|

e|-----------------------|
B|-----------------------|
G|-----------------------|
D|--2--------------------|
A|-----------------------|
E|--0--------------------|
Minuet in G -

|------------------|------------------|-0-----------0--2-|-3----------------|
|-3-----------0--1-|-3----------------|-------1--3-------|------------------|
|-------0--2-------|-------0-----0----|------------------|-------0-----0----|
|------------------|------------------|------------------|------------------|
|-------------0----|-2----------------|-3----------------|-2----------------|
|-3----------------|------------------|------------------|------------------|

|------------------|------------------|------------------|------------------|
|-1-----3--1--0----|-0-----1--0-------|-------------0----|------------------|
|----------------2-|-------------2--0-|-------0--2-----0-|-4p2--------------|
|------------------|------------------|-4----------------|-0-----0----------|
|-0----------------|------------------|-5-----2----------|----------3--2--0-|
|------------------|-3----------------|-------------3----|------------------|

|------------------|------------------|-0-----------0--2-|-3----------------|
|-3-----------0--1-|-3----------------|-------1--3-------|------------------|
|-------0--2-------|-------0-----0----|------------------|-------0-----0----|
|------------------|------------------|------------------|------------------|
|-2-----------0----|-------2----------|-3----------------|-2-----3--2--0----|
|------------------|-3-----------3----|------------------|----------------3-|

|------------------|------------------|------------------|------------------|
|-1-----3--1--0----|-0-----1--0-------|-------0----------|-0----------------|
|----------------2-|-------------2--0-|-2--------2--0----|------------------|.
|------------------|------------------|-------0--------4-|------------------|.
|-0----------------|-------------2----|-3-----------5----|------------------|
|-------------2----|-3----------------|------------------|-3-----------3----|

|-7-----3--5--7--3-|-5-----------2----|-3-----0--2--3----|------------------|
|------------------|-------3--5-----3-|----------------3-|-2-----0h2--------|
|-0----------------|------------------|-------0----------|-2-----------2----|
|------------------|-4----------------|-2-----------2----|------------------|
|------------------|------------------|------------------|------------------|
|------------------|------------------|------------------|------------------|
|-------------0--2-|-3-----2-----0----|-2----------------|------------------|
|----0--2--3-------|------------------|-------------2----|-3----------------|
|-2----------------|------------------|-------2----------|------------------|
|------------------|-------0----------|-0----------------|-0-----0----------|
|-0----------------|-2-----------4----|-------------0----|-------------3----|
|------------------|------------------|-------2----------|------------------|

|------------------|-0----------------|------------------|------------------|
|-3----------------|------------------|-3-----1-----0----|------------------|
|-------0-----0----|-------0-----0----|------------------|-2--0-----0--2----|
|-------0--4-------|-------2--4-------|------------------|-------4----------|
|-2-----------2----|-3-----------3----|-2-----0----------|-5----------------|
|------------------|------------------|-------------3----|------------------|

|------------------|------------------|------------------|------------------|
|----------------0-|-1-----0----------|-0--3-------------|------------------|
|----------0h2-----|-------0-----2----|-0-----0----------|-0----------------|.
|-0h2---4----------|-2-----------4----|-------------4----|-------0----------|.
|-5----------------|------------------|-------2-----5----|------------------|
|------------------|------------------|------------------|-3-----------3----|

Version in A

e|-0-----------|-0-----------|-2-----0-2-4-|-5-----------|
B|-2-----0-2-3-|-------------|-----3-------|-------------|
G|-2---2-------|-----2---2---|-------------|-----2---2---|
D|-------------|-------------|-0-----------|-------------|
A|-0-------2---|-4-----------|-------------|-4-----------|
E|-------------|-------------|-------------|-------------|

e|-----0-------|-------------|-------------|-------------|
B|-3-----3-2-0-|-2---3-2-0---|-------0-2---|-2---0-------|
G|-------------|-----------2-|-1---2-----2-|-------------|
D|-------------|-------------|-2-----------|-2-----0-----|
A|-2-----------|-0-----------|-----4---0---|---------4-2-|
E|-------------|-------------|-------------|-----0-------|
e|-0-----------|-0-----------|-2-----0-2-4-|-5-----------|
B|-------0-2-3-|-------------|-----3-------|-------------|
G|-----2-------|-----2---2---|-------------|-----2---2---|
D|-------------|-------------|-0-----------|-----0-------|
A|-0-------2---|-0---4---0---|-------------|-4-----4-2-0-|
E|-------------|-------------|-------------|-------------|

e|-----0-------|-------------|-------------|-------------|
B|-3-----3-2-0-|-2---3-2-0---|-0---2-0-----|-------------|
G|-------------|-----------2-|---------2-1-|-2-----------|
D|-------------|-------------|-0---2-------|-------------|
A|-2-----------|-0-------4---|-------------|-0-------0---|
E|---------4---|-------------|---------0---|-------------|

e|-9-------9---|-7-------4---|-5---2-4-5-0-|-------------|
B|-----1012--10|-----5-7---5-|-------------|-4---2-4-0---|
G|-------------|-------------|-------------|-------------|
D|-------------|-------------|-------------|-------------|
A|-0-----------|-------------|-----0-------|-2-------2---|
E|-------------|-4-----------|-2-------2---|-------------|

e|-------0-2-4-|-5---4---2---|-4-----------|-0-----------|
B|-0-2-4-------|-------------|-----0---4---|-------------|
G|-------------|-------------|-------------|-------------|
D|-------------|-----2---1---|-2-----------|-2-------0---|
A|-2-----------|-4-----------|---------2---|-------------|
E|-------------|-------------|-----4-------|-----0-------|

e|-0-----------|-2-----------|-0-----------|-------------|
B|-------------|-------------|-----3---2---|-0-------0---|
G|-----2-1-2---|-----2-1-2---|-------------|---2-1-2-----|
D|-----2-------|-0---4---0---|-------------|-2-----------|
A|-4-------4---|-------------|-4---2---0---|-------------|
E|-------------|-------------|-------------|-------------|

e|-------------|-------------|---0---------|------------||
B|---------0-2-|-3---2---0---|-2-----------|------------||
G|-----1-2-----|-------------|-----2---1---|-2----------||
D|-2-4---------|-------------|-------------|-2----------||
A|-------------|-----0-------|-0---4-------|-4-------0--||
E|-0-------4---|-2-------4---|---------0---|-5---0------||
JESU JOY OF MAN'S DESIRING

|---------------0---|---3-2-3-----------|
|-------0-3-1-1---3-|-3-------3-0-----0-|
|---0-2-0-----------|-------------0-2---|
|-------------2-----|-------2-----------|
|-------------------|-2-----------------|
|-3-----------------|-------------0-----|

|-----0-------------|--------------------|
|-1-3---3-1-0---0---|-------------1------|
|-------------2---0-|---0-2-----2---4-2--|
|-------------------|-4-----0-4---0------|
|-0-----2-----3-----|-5------------------|
|-------------------|--------------------|

|---------------0---|---3-2-3-----------|
|-------0-3-1-1---3-|-3-------3-0-----0-|
|-4-0-2-------------|-------------0-2---|
|-------------------|-------2-----0-----|
|-------------3-----|-2-----------------|
|-3-----0-----------|-------------------|

|-------------------|-------3-----------|
|---3-1-0-----------|---0-3---3-0---0-3-|
|---------2-0---0---|-0-----------0-----|
|-2-----------0---4-|-------------0-----|
|-3-----4-----------|-------2---------2-|
|-------------------|-3-----------------|

|-------------|-------------|-------------|
|-0-------1---|-3-------3---|-1-------0---|
|-0-------0---|-2-------2---|-0-------0---|
|-0-------2---|-0-------0---|-2-------0---|
|-------------|-------------|-------------|
|-3---2---0---|-2---0---2---|-0---2---3---|
|-------------------|----------------------|
|---------------1-0-|-1-----------1--------|
|-2-------2-0-2-----|---2-------2---4-2----|
|---0-2-4-----0-----|-0---4-0-4---0--------|
|-------0-----------|----------------------|
|-2-----------------|----------------------|

|-------------|-------------|----------------|---------------0----|
|-0-------1---|-3-------0---|----0-1-0-------|-------0-3-1-1---3--|
|-0-------0---|-0-------0---|-2----------2---|-0-4-2-0------------|
|-0-------2---|-0-------2---|--------0-------|-------------2------|
|-------------|-2-----------|-3----------3---|--------------------|
|-3---2---0---|-----0-------|----------------|-3------------------|

|---3-2-3-----------|-----0-------------|
|-3-------3-0-----0-|-1-3---3-1-0---0---|
|-------------0-2---|-------------2---0-|
|-------2-----------|-------------------|
|-2-----------------|-0-----2-----3-----|
|-------------0-----|-------------------|

|-------------------|---------------0---|
|-------------1-----|-------0-3-1-1---3-|
|---0-2-----2---4-2-|-4-0-2-------------|
|-4-----0-4---0-----|-------------------|
|-5-----------------|-------------3-----|
|-------------------|-3-----0-----------|

|---3-2-3-----------|-------------------|
|-3-------3-0-----0-|---3-1-0-----------|
|-------------0-2---|---------2-0---0---|
|-------2-----0-----|-2-----------0---4-|
|-2-----------------|-3-----4-----------|
|-------------------|-------------------|

|-------3-----------|-------------|--------------|
|---0-3---3-0---0-3-|-0-------1---|-3-------3----|
|-0-----------0-----|-0-------0---|-2-------2----|
|-------------0-----|-0-------2---|-0-------0----|
|-------2---------2-|-------------|--------------|
|-3-----------------|-3---2---0---|-2---0---2----|
|-------------|-------------------|
|-1-------0---|---------------1-0-|
|-0-------0---|-2-------2-0-2-----|
|-2-------0---|---0-2-4-----0-----|
|-------------|-------0-----------|
|-0---2---3---|-2-----------------|

|-------------------|-------------|--------------|
|-1-----------1-----|-0-------1---|-3-------0----|
|---2-------2---4-2-|-0-------0---|-0-------0----|
|-0---4-0-4---0-----|-0-------2---|-0-------2----|
|-------------------|-------------|-2------------|
|-------------------|-3---2---0---|-----0--------|

|----------------|---------------0---|---3-2-3-----------|
|----0-1-0-------|-------0-3-1-1---3-|-3-------3-0-----0-|
|-2----------2---|-0-4-2-0-----------|-------------0-2---|
|--------0-------|-------------2-----|-------2-----------|
|-3----------3---|-------------------|-2-----------------|
|----------------|-3-----------------|-------------0-----|

|-----0-------------|-------------------|
|-1-3---3-1-0---0---|-------------1-----|
|-------------2---0-|---0-2-----2---4-2-|
|-------------------|-4-----0-4---0-----|
|-0-----2-----3-----|-5-----------------|
|-------------------|-------------------|

|---------------0---|---3-2-3-----------|
|-------0-3-1-1---3-|-3-------3-0-----0-|
|-4-0-2-------------|-------------0-2---|
|-------------------|-------2-----0-----|
|-------------3-----|-2-----------------|
|-3-----0-----------|-------------------|

|-------------------|-------3-----------|-------------|-------------|
|---3-1-0-----------|---0-3---3-0---0-2-|-3-------0---|-1-------1---|
|---------2-0---0---|-0-----------0-----|---------1---|-2---2-0-----|
|-2-----------0---4-|-------------0-----|-4-------0---|-2-------3-2-|
|-3-----4-----------|-------2-----------|-5---3---2---|-0-----------|
|-------------------|-3-----------------|-------------|-------------|
|----------------|---------0-----1-0-|-0-5-4-5-0---------|
|-0------1-3-0---|---1-0-1---3-3-----|-----------1---0-1-|
|-2----------1---|-2-----------------|-------------2-----|
|-0----------2---|-------3-----0-----|-------3-----2-----|
|-----2----------|-0-----------------|-3-----------------|
|----------------|-------------------|-------------------|

|-1-0---------------|---------------|-0-------0---|
|-----3-1-----------|-1---------3---|-1-------1---|
|---------4-2---2-1-|-2-----2---0---|-0-------3---|
|-0-----1-----2-----|-2---2-----0---|---------2---|
|-------------------|-0-3-------2---|-3---0-------|
|-------------0-----|---------------|-------------|

|--------0-1-----|---3-1-3-0---------|-------------------|
|-3----------3---|-1---------1-------|---1-0-1-----------|
|-2----------0---|-0-----------0-2-3-|-2-------2---------|
|-3---0------3---|-2-----2-----------|-3-----0---3-0-2-3-|
|------------2---|-3-----------3-----|-------------------|
|----------------|-------------------|-------------3-----|

|-------------------|-------------|----------|----------|--------------------|
|-------------------|-0-------1---|-3-----3--|-1-----0--|---------------1-0--|
|---------0---0-4-2-|-0-------0---|-0-----0--|-0-----0--|-2-------2-0-2------|
|-2---0-2---4-------|-0-------2---|-0--2-----|-------0--|---0-2-4-----0------|
|-3-3---3-----2-----|-------------|-2-----2--|-0--------|-------0------------|
|-------------------|-3---2---0---|-------0--|----2--3--|-2------------------|

|-------------------|-------------|-------------|-----------------|
|-1-----------1-----|-0-------1---|-3-------0---|----0-1-0--------|
|---2-------2---4-2-|-0-------0---|-0-------0---|-2----------2----|
|-0---4-0-4---0-----|-0-------2---|-0-------2---|--------0--------|
|-------------------|-------------|-2-----------|-3----------3----|
|-------------------|-3---2---0---|-----0-------|-----------------|
|-------3-----------|-1-----------0-----|
|---0-3---3-0---0-3-|---3-0---0-3---1---|
|-0-----------0-----|-------0---------2-|
|-------------------|-0-----------------|
|-------2-----------|-------2-----3-----|
|-3-----------3-----|-------------------|

|-------------------|-------------------|
|-----1-3---------0-|-1-----------1-----|
|---2-----4-0---0---|---2-------2---4-2-|
|-4-----------2-----|-----4-0-4---0-----|
|-0-----2-----------|-0-----------------|
|-------------3-----|-------2-----------|

|---------------0---|---3-2-3-----------|
|-------0-3-1-1---3-|-3-------3-0-----0-|
|-4-0-2-------------|-------------0-2---|
|-------------------|-------2-----------|
|-------------3-----|-2-----------------|
|-3-----0-----------|-------------0-----|

|-----0-------------|-------------------|
|-1-3---3-1-0---0---|-------------1-----|
|-------------2---0-|---0-2-----2---4-2-|
|-------------------|-4-----0-4---0-----|
|-0-----2-----3-----|-5-----------------|
|-------------------|-------------------|

|---------------0---|---3-2-3-----------|-------------------|-----------*|
|-------0-3-1-1---3-|-3-------3-0-----0-|---3-1-0-----------|-----------*|
|-4-0-2-------------|-------------0-2---|---------2-0---0---|-0---------*|
|-------------------|-------2-----0-----|-2-----------0---4-|-0---------*|
|-------------3-----|-2-----------------|-3-----4-----------|-2---------*|
|-3-----0-----------|-------------------|-------------------|-3---------*|
Version 1

e|---------------------------0-----|-----3--2----3-------------------|
B|-------------0--3--1----1-----3--|--3----------0--3--0----------0--|
G|-----0--2----0----------0--------|--0---------------------0--2-----|
D|-------------0----------2--------|-------------2----------2--------|
A|---------------------------------|--2------------------------------|
E|--3------------------------------|---------------------------------|

e|--------0------------------------|---------------------------------|
B|--1--3-------3--1--0-------0-----|------------------------1--0-----|
G|-------------0----------2-----0--|-----0--2----------2----------2--|
D|---------------------------------|--4----------0--4-------0--------|
A|--0----------2----------3--------|---------------------------------|
E|---------------------------------|---------------------------------|

e|---------------------------0-----|-----3--2----3-------------------|
B|--0----------0--3--1----1-----3--|--3----------0--3--0----------0--|
G|-----0--2----0----------0--------|--0---------------------0--2-----|
D|------------------------2--------|-------------2----------0--------|
A|---------------------------------|--2------------------------------|
E|--3----------0-------------------|---------------------------------|
Barre III

e|---------------------------------|--|----------3-------------------|
B|-----3--1----0-------------------|--------3-------3----------------|
G|-------------0--2--0-------0-----|-----4-------------4-------4--2--|
D|--2---------------------------4--|--5---------------------5--------|
A|--3----------4----------5--------|-------------5----------2--------|
E|---------------------------------|--3------------------------------|
Back to 1st
e|--|------------------|---------------------|---------------------|
B|--0---------------1--|--3---------------3--|--1---------------0--|
G|--0------------------|------------------0--|------------------0--|
D|----------4-------2--|--4-------2----------|--2-------4----------|
A|---------------------|---------------------|---------------------|
E|---------------------|---------------------|---------------------|

e|---------------------------------|---------------------------------|
B|---------------------------1--0--|--1---------------------1--0-----|
G|--2-------------2--0----2--------|-----2-------------2----------2--|
D|--4--0--2----4-------------------|--0-----4----0--4-------0--------|
A|---------------------------------|---------------------------------|
E|---------------------------------|---------------------------------|
e|---------------------------0-----|-----3--2----3-------------------|
B|--0----------0--3--1----1-----3--|--3----------0--3--0----------0--|
G|-----0--2----0----------0--------|--0---------------------0--2-----|
D|-------------4----------2--------|-------------2----------2--------|
A|---------------------------------|--2------------------------------|
E|--3------------------------------|---------------------------------|

e|---------------------------------|
B|-----3--1----0-------------------|
G|----------------2--0-------0-----|
D|--2---------------------------4--|
A|--3----------4----------5--------|
E|---------------------------------|

e|---------------------------0-----|-----3--2----3-------------------|
B|-----0-------0--3--1----1-----3--|--3----------0--3--0----------0--|
G|--0-----2----0----------0--------|--0---------------------0--2-----|
D|-------------0----------2--------|-------------2-------------------|
A|---------------------------------|--2------------------------------|
E|--3------------------------------|------------------------0--------|

e|--------0------------------------|---------------------------------|
B|--1--3-------3--1--0-------0-----|------------------------1--0-----|
G|------------------------2-----0--|-----0--2----------2----------2--|
D|---------------------------------|--4----------0--4-------0--------|
A|--0----------2----------3--------|---------------------------------|
E|---------------------------------|---------------------------------|

e|---------------------------0-----|-----3--2----3-------------------|
B|--0----------0--3--1----1-----3--|--3----------0--3--0----------0--|
G|-----0--2----0----------0--------|--0---------------------0--2-----|
D|------------------------2--------|-------------2----------0--------|
A|---------------------------------|--2------------------------------|
E|--3----------0-------------------|---------------------------------|

e|---------------------------------|-------------3-------------------|
B|-----3--1----0-------------------|-----0--3-------3--0-------0--2--|
G|-------------0--2--0-------0-----|--0---------------------0-----0--|
D|--2---------------------0-----4--|---------------------------------|
A|--3----------4-------------------|------------------------------0--|
E|---------------------------------|--3------------------------------|
run down
chord

e|---------------------------------|-------------|-------------------|
B|--3------------------------0-----|-----1--0----1-------------------|
G|----------------2--1----1-----2--|--2----------2--2----------------|
D|--4--0--2----4-------------0-----|-----2--0----2-----2-------0--2--|
A|--0----------3----------2-----3--|--3----------0----------3--------|
E|---------------------------------|---------------------------------|
run down
chord
|
e|-------------|-------------------|----------------0----------1--0--|
B|-----3--1----3--0----------------|-----1--0----1-----3----3--------|
G|-------------1-----1----------1--|--2----------2----------2--------|
D|--3---------------------2--4-----|-------------3----------3--------|
A|-------------2-------------------|--0------------------------------|
E|---------------------------------|---------------------------------|

e|--0--5--4----5--0----------------|--1--0---------------------------|
B|-------------5-----1-------0--1--|--3-----3----1--0----------------|
G|--2---------------------2--------|--2----------2-----2-------2--1--|
D|-------------3----------2--------|--0----------1----------2--------|
A|--3------------------------------|---------------------------------|
E|---------------------------------|---------------------------------|
Barre V
|
e|--------0------5------3--|-------------0--3-------|--6--5--|
B|-----1---------5------3--|-----1--3----1-----6----8--------|
G|--2------------6---------|--0----------2----------5--------|
D|-------------------------|--2---------------------5--------|
A|--0-------------------2--|--3---------------------5--------|
E|-------------------------|---------------------------------|
Back to 1st
|
e|--5--8--7----8--5-------|--0--1--|--0--3--1----3--0----------------|
B|--6----------------6----3--------|--1----------------3-------------|
G|--5---------------------0--------|--0---------------------0--2--4--|
D|---------------------------------|-------------2-------------------|
A|-------------5-------------------|--3---------------------3--------|
E|---------------------------------|---------------------------------|
e|---------------------------------|---------------------------------|
B|-----1--0----1-------------------|---------------------------0-----|
G|--2-------------2----------------|----------------0-------0-----2--|
D|--3----------0-----1----0--2--1--|--2-----0----2-----4-------------|
A|---------------------------------|-----3-------------0-------------|
E|------------------------3--------|------------------------3--------|

e|---------------------------0-----|-----3--2----3-------------------|
B|--0----------0--3--1----1-----3--|--3----------0--3--0----------0--|
G|-----0--2----0----------0--------|--0---------------------0--3-----|
D|-------------0----------2--------|-------------2-------------------|
A|---------------------------------|--2------------------------------|
E|--3------------------------------|------------------------0--------|

e|--------0------------------------|---------------------------------|
B|--1--3-------3--1--0-------0-----|---------------------------1--0--|
G|-------------0----------2-----0--|----------------2--0----2--------|
D|---------------------------------|--4--0--2----4----------0--------|
A|--0----------2----------3--------|---------------------------------|
E|---------------------------------|---------------------------------|

e|---------------------------------|---------------------------0-----|
B|--1---------------------1--0-----|--0----------0--3--1----1-----3--|
G|-----2-------------2----------2--|-----0--2----0----------0--------|
D|--0-----4----0--4-------0--------|-------------4----------2--------|
A|---------------------------------|---------------------------------|
E|---------------------------------|--3------------------------------|

e|-----3--2----3-------------------|---------------------------------|
B|--3----------0--3--0----------0--|-----3--1----0-------------------|
G|--0---------------------0--2-----|-------------0--2--0-------0-----|
D|-------------2----------2--------|--2----------0----------0-----4--|
A|--2------------------------------|--3------------------------------|
E|---------------------------------|---------------------------------|

e|-------------3-------------------|--1---------------------0--------|
B|-----0--3-------3--0-------0--3--|-----3--0-------0--3-------1-----|
G|--0---------------------0--------|-------------0----------------2--|
D|---------------------------------|---------------------------------|
A|---------------------------------|---------------------------------|
E|--3---------------------3--------|--3---------------------3--------|
e|---------------------------------|---------------------------------|
B|--------1----3--0-------------0--|--1---------------------1--0-----|
G|-----2-------------0-------0-----|-----2-------------2----------2--|
D|--4---------------------2--------|--------4----0--4----------------|
A|---------------------------------|---------------------------------|
E|--3----------3----------3--------|--3---------------------3--------|

e|---------------------------0-----|-----3--2----3-------------------|
B|--0----------0--3--1----1-----3--|--3----------0--3--0----------0--|
G|-----0--2----0----------0--------|--0---------------------0--2-----|
D|-------------0----------2--------|-------------2----------2--------|
A|---------------------------------|--2------------------------------|
E|--3------------------------------|---------------------------------|

e|--------0------------------------|---------------------------------|
B|--1--3-------3--1--0-------0-----|------------------------1--0-----|
G|-------------0----------2-----0--|-----0--2----------2----------2--|
D|---------------------------------|--4----------0--4----------------|
A|--0----------2----------3--------|---------------------------------|
E|---------------------------------|---------------------------------|

e|---------------------------0-----|-----3--2----3-------------------|
B|--0----------0--3--1----1-----3--|--3----------0--3--0----------0--|
G|-----0--2----0----------0--------|--2---------------------0--2-----|
D|------------------------2--------|-------------2----------0--------|
A|---------------------------------|--2------------------------------|
E|--3----------0-------------------|---------------------------------|
run down
chord
|
e|---------------------------------|--|-----------------------------||
B|-----3--1----0-------------------|--------------------------------||
G|-------------0--2--0-------0-----|--0-----------------------------||
D|--2---------------------0-----4--|--0-----------------------------||
A|--3----------4----------------3--|--2-----------------------------||
E|---------------------------------|--3-----------------------------||
Version 2

E||-----------------------0-----|-----3--2--3-----------------|
B||--0--------0--3--1--1-----3--|--3-----------3--0--------0--|
G||-----0--2--------------------|--------------------0--2-----|
D||-----------------------------|-----------------------------|
A||-----------------------------|-----------2-----------------|
D||--5--------4--------2--------|--5-----------------5--------|

E|--------0--------------------|-----------------------------|
B|--1--3-----3-----0-----0-----|--------------------1--0-----|
G|--------------5-----------0--|-----0--2--------2--------2--|
D|--2--------0--------7--------|--4--------0--4--------------|
A|-----------------------------|-----------------------------|
D|-----------5--------5--------|--0--------0--------0--------|

E|-----------------------0-----|-----3--2--3-----------------|
B|--0--------0--3--1--1-----3--|--3-----------3--0--------0--|
G|-----0--2--------------------|--------------------0--2-----|
D|-----------------------------|-----------------------------|
A|-----------------------------|-----------2-----------------|
D|--5--------4--------2--------|--5-----------------5--------|

E|-----------------------------|-----------3-----------------||
B|-----------0-----------------|-----0--3-----3--0-----0-----||
G|-----7--5-----2--0-----0-----|--0-----------------0-----2-:||
D|--------------------0-----4--|-----------------------------||
A|--7--------------------------|-----------------------------||
D|--5--------5--------0--------|--5-----------------5--------||

E|-----------3-----------------|
B|-----0--3-----3--0-----0--3--|
G|--0-----------------0--------|
D|-----------------------------|
A|-----------------------------|
D|--5--------------------------|

E|--7-----------------8-------|-10----------------10--------|
B|--8----------------10-------|-12----------------12--------|
G|--0--0--------0-----0--0----|--0--0--------0-----0--0-----|
D|--------0--------0--------0-|--------0--------0--------0--|
A|----------------------------|-----------------------------|
D|-----------5----------------|-----------5-----------------|
E|--8-----------------7-------|--5--------------5---8--7--5--|
B|-10-----------------8-------|-----7--------7---------------|
G|--0--0--------0-----0--0----|--------7--7------------------|
D|--------0--------0--------0-|------------------------------|
A|----------------------------|------------------------------|
D|-----------5----------------|--0--------0---------0--------|

E|--7-----------------8-------|-10-----------------7--------|
B|--8----------------10-------|-12-----------------8--------|
G|--0--0--------0-----0--0----|--0--0--------0-----0--0-----|
D|--------0--------0--------0-|--------0--------0--------0--|
A|----------------------------|-----------------------------|
D|-----------5----------------|-----------5-----------------|

E|--5-----7/8---7--------5--------|--3--------------------------||
B|--7-----------------------------|-----------------------0-----||
G|-----7-----------7--------7-----|-----0--------0-----------2--||
D|--------------------7--------7--|--------0--------0----------:||
A|--------------------------------|-----------------------------||
D|--0-----------0--------0--------|--5--------5--------5--------||

E||-----------------------0-----|-----3--2--3-----------------|
B||--0--------0--3--1--1-----3--|--3-----------3--0--------0--|
G||-----0--2--------------------|--------------------0--2-----|
D||-----------------------------|-----------------------------|
A||-----------------------------|-----------2-----------------|
D||--5--------4--------2--------|--5-----------------5--------|

E|--------0--------------------|-----------------------------|
B|--1--3-----3-----0-----0-----|--------------------1--0-----|
G|--------------5-----------0--|-----0--2--------2--------2--|
D|--2--------0--------7--------|--4--------0--4--------------|
A|-----------------------------|-----------------------------|
D|-----------5--------5--------|--0--------0--------0--------|

E|-----------------------0-----|-----3--2--3-----------------|
B|--0--------0--3--1--1-----3--|--3-----------3--0--------0--|
G|-----0--2--------------------|--------------------0--2-----|
D|-----------------------------|-----------------------------|
A|-----------------------------|-----------2-----------------|
D|--5--------4--------2--------|--5-----------------5--------|
E|-----------------------------|-----------3-----------------||
B|-----------0-----------------|-----0--3-----3--0-----0-----||
G|-----7--5-----2--0-----0-----|--0-----------------0-----2-:||
D|--------------------0-----4--|-----------------------------||
A|--7--------------------------|-----------------------------||
D|--5--------5--------0--------|--5-----------------5--------||

E|-----------3-----------------|
B|-----0--3-----3--0-----0--3--|
G|--0-----------------0--------|
D|-----------------------------|
A|-----------------------------|
D|--5-----------------5--------|

E|--1-----------------0--------|-----------------------------|
B|-----3--0--------1-----1-----|--------------------1--0-----|
G|-----------0--2-----------2--|-----0--2--------2--------2--|
D|-----------------------------|--4--------0--4--------------|
A|-----------------------------|-----------------------------|
D|-----------5-----------------|--0--------0--------0--------|
^

E|-----------------------0-----|-----3--2--3-----------------|
B|--0--------0--3--1--1-----3--|--3-----------3--0--------0--|
G|-----0--2--------------------|--------------------0--2-----|
D|-----------------------------|-----------------------------|
A|-----------------------------|-----------2-----------------|
D|--5--------4--------2--------|--5-----------------5--------|
_
/.\
E|-----------------------------|-----------3----------------||
B|-----------0-----------------|-----0--3--0----------------||
G|-----7--5-----2--0-----0-----|--0--------0----------------||
D|--------------------0-----4--|-----------0----------------||
A|--7--------------------------|----------------------------||
D|--5--------5--------0--------|--5--------5----------------||
Ludwing Van Beethoven

Obras.
1- Fur Elise
Fur Elise
E-|---------12-11|12-11-12-7-10-8|-5---------5|-7-----0-4-7|
B-|--------------|---------------|---------5--|------------|
G-|--------------|---------------|-------5----|------------|
D-|--------------|---------------|-----7------|-----6------|
A-|--------------|---------------|---7--------|---7--------|
E-|--------------|---------------|-5----------|-0----------|

E-|-8-----0-12-11|12-11-12-7-10-8|-5---------5|-7-------8-7|
B-|--------------|---------------|---------5--|-------5----|
G-|--------------|---------------|-------5----|------------|
D-|-----7--------|---------------|-----7------|-----6------|
A-|---7----------|---------------|---7--------|---7--------|
E-|-5------------|---------------|-5----------|-0----------|

E-|-5---------||-5-----7-8-10||-12------13-12|10------12-10|
B-|-----------||-------------||--------8-----|-----0-------|
G-|----------@||-----2-------||@-------------|---0--10-----|
D-|-----7----@||---2---------||@----10-------|-------------|
A-|---7-------||-0-----------||---10---------|10-----------|
E-|-5---------||-------------||--8-----------|-------------|

E-|-8------10-8|-7------12--|12H12H5-11-12-11|12-11-12-11-12-11|
B-|-------5----|------------|----------------|-----------------|
G-|------------|-----9-9---9|----------------|-----------------|
D-|-----7------|------------|----------------|-----------------|
A-|---7--------|---7--------|----------------|-----------------|
E-|-5----------|-0----------|----------------|-----------------|

E-|12-11-12-7-10-8|-5---------5|-7-----0---7|-8-----0-12-11|
B-|---------------|---------5--|---------9--|--------------|
G-|---------------|-------5----|------------|--------------|
D-|---------------|-----7------|-----6------|-----7--------|
A-|---------------|---7--------|---7--------|---7----------|
E-|---------------|-5----------|-0----------|-5------------|
E-|12-11-12-7-10-8|-5---------5|-7-------8-7|-5-----7-8-10||
B-|---------------|---------5--|-------5----|-------------||
G-|---------------|-------5----|------------|-----2------@||
D-|---------------|-----7------|-----6------|---2--------@||
A-|---------------|---7--------|---7--------|-0-----------||
E-|---------------|-5----------|-0----------|-------------||

E-|-5----------|----------1--0|-0-------6--5|-5----------|
B-|-------1-1-1|--1-----------|-------------|---8-6-5----|
G-|-----2-----3|-2----2---2---|-----7---7---|---------7-5|
D-|---2---2-3-2|3---3---3---3-|---8---8---8-|------------|
A-|-0-----1-0-1|--------------|-8-----------|-8----------|
E-|-----------3|--1-----------|-------------|------------|

E-|------------------|------------|-0-----0-1--|
B-|------------------|-1-------3-4|-----1------|
G-|-3---2---3p2p0h2h3|---2---2---2|---2---2---2|
D-|-3----------------|------------|---------0--|
A-|---3---3-3--------|-----3---3--|------------|
E-|------------------|-1----------|-0----------|

E-|-----------------|--3-3-3-3-3-3|-----8--------------3p1--|
B-|-1---3p1p0h1-3--0|-1-----0-1-3-|---8--12-10-8-----3-----3|
G-|-----------------|---0-2-------|-9-----------10-9--------|
D-|---2-----2-----3-|-------------|-------------------------|
A-|-----------------|-3-----------|----------8-------2------|
E-|-3---3-------3---|-------------|-8-----------------------|

E-|--3-3-3-3-3-3|-----8--------------3p1--|
B-|-1-----0-1-3-|---8--12-10-8-----3-----3|
G-|---0-2-------|-9-----------10-9--------|
D-|-------------|-------------------------|
A-|-3-----------|----------8-------2------|
E-|-------------|-8-----------------------|

E-|------------------------|---------0--|-0-----H12--|
B-|-5-6-5-4-5---5-4-5---5-4|-5-----0----|-----H12----|
G-|-4---------4-------4----|-----------8|----------A8|*
D-|------------------------|------------|------------|
A-|------------------------|------------|------------|
E-|-4----------------------|------------|------------|
E-|H12-H12-H12--|12-11-12-7-10-8|-5---------5|-7-----0---7|
B-|-------------|---------------|---------5--|---------9--|
G-|---A8--A8--A8|---------------|-------5----|------------|
D-|-------------|---------------|-----7------|-----6------|
A-|-------------|---------------|---7--------|---7--------|
E-|-------------|---------------|-5----------|-0----------|

E-|-8-----0-12-11|12-11-12-7-10-8|-5---------5|-7-------8-7|
B-|--------------|---------------|---------5--|-------5----|
G-|--------------|---------------|-------5----|------------|
D-|-----7--------|---------------|-----7------|-----6------|
A-|---7----------|---------------|---7--------|---7--------|
E-|-5------------|---------------|-5----------|-0----------|

E-|-5-----7-8-10|12------13-12|10------12-10|
B-|-------------|-------8-----|-----0-------|
G-|-----2-------|-------------|---0--10-----|
D-|---2---------|----10-------|-------------|
A-|-0-----------|--10---------|10-----------|
E-|-------------|-8-----------|-------------|

E-|-8------10-8|-7------12--|12H12H5-11-12-11|12-11-12-11-12-11|
B-|-------5----|------------|----------------|-----------------|
G-|------------|-----9-9---9|----------------|-----------------|
D-|-----7------|------------|----------------|-----------------|
A-|---7--------|---7--------|----------------|-----------------|
E-|-5----------|-0----------|----------------|-----------------|

E-|12-11-12-7-10-8|-5---------5|-7-----0-4-7|-8-----0-12-11|
B-|---------------|---------5--|------------|--------------|
G-|---------------|-------5----|------------|--------------|
D-|---------------|-----7------|-----6------|-----7--------|
A-|---------------|---7--------|---7--------|---7----------|
E-|---------------|-5----------|-0----------|-5------------|
E-|12-11-12-7-10-8|-5---------5|-7-------8-7|
B-|---------------|---------5--|-------5----|
G-|---------------|-------5----|------------|
D-|---------------|-----7------|-----6------|
A-|---------------|---7--------|---7--------|
E-|---------------|-5----------|-0----------|

E-|-5----------|-9----------|10------12-13|13------13--|
B-|------------|-8----------|10------14-15|15------15--|
G-|------------|-9----------|10-----------|13------13--|
D-|------------|-8----------|-------------|------------|
A-|---0---0---0|-0-0-0-0-0-0|-0-0-0-0-0--0|-0-0-0-0-0-0|
E-|-5---5---5--|------------|-------------|------------|

E-|12----------|10-------8-7|-5-------5--|-5---8---7--|
B-|13----------|------------|-7----------|------------|
G-|14----------|10-------9-7|-5-------5--|-5---9---7--|
D-|------------|-0-0-0-0-0-0|-7----------|------------|
A-|-0-0-0-0-0-0|-0-0-0-0-0-0|-6-6-6-6-6-6|-0-0-0-0-0-0|
E-|------------|------------|-5-5-5-5-5-5|-0-0-0-0-0-0|

E-|-5----------|------------|---------0-1|-1-------1--|
B-|------------|-2----------|-3-------2-3|-3-------3--|
G-|-5----------|-0----------|-2----------|------------|
D-|------------|-2----------|-3----------|------------|
A-|---0---0---0|-0-0-0-0-0-0|-0-0-0-0-0-0|-0-0-0-0-0-0|
E-|-5---5---5--|------------|------------|------------|

E-|-1----------|------------|------------|------------|
B-|-3----------|-4-------3-1|------------|------------|
G-|------------|-0----------|-3-------2--|-1-------1--|
D-|------------|---------3-1|-0-------0--|-0-------0--|
A-|-1-1-1-1-1-1|-1-1-1-1-1-1|-1-1-1-1-1-1|-2-2-2-2-2-2|
E-|------------|------------|------------|------------|

E-|------------|------------|-----------0------|
B-|------------|-0----------|---------1---3-1-0|
G-|-2----------|-1----------|-2-----2----------|
D-|-2----------|-0----------|-----2------------|
A-|-3----------|-2----------|-0h3---------0----|
E-|-5----------|-0----------|------------------|
E-|-------5-8-12-10-8-7|---8-H12-A5-A8-A0-A10-A8-A7|
B-|-----5--------------|10-------------------------|
G-|---5----------------|---------------------------|
D-|-7------------------|---------------------------|
A-|-0-------------0----|-0------------------0------|
E-|--------------------|---------------------------|