You are on page 1of 20

Msicas Infantis

Cai Cai Balo - Tablatura e cdigo


TABLATURA
--3--3--1--0-------3--3--1--0---------3--5--3--1--0------------------------------------------------------------3------------------------------------------------------------------------------------------------------------------------------------------------------------------------------------------------------------------------------------------0--1------0--1-------0--1--------3--5--3--1--0---------3---------3----------3------------------------------3--1-------------------------------------------------------------------------------------------------------------------------------------------------------------------------------------------------------------------------------------------------CDIGO
SOL SOL F MI
13 13 11 10
SOL SOL F MI
13 13 11 10
SOL L SOL F MI R
13 15 13 11 10 23
R MI F
23 10 11
R MI F
23 10 11
R MI F
23 10 11
SOL L SOL F MI R D
13 15 13 11 10 23 21
Tags: Vdeo aula de violo online para iniciante

Boi da cara preta - Cifra - Tablatura - cdigo - Solo e acordes

CDIGO

D D D
21 21 21

F MI R D R
11 10 23 21

23

23

SI

SI

SI

20

20 20

21

23

F MI

23

11 10

R
23

R
23

D
21

20

SI

D
21

21

___________________________________________________

TABLATURA

--------------1--0-------------------1--1--1-----------3--1--3--3-------------------------------------------------------------------------------------------------------------------------------------------------

------------------------1---------------------0--0--0--1--3--3--3-----0--3--1--0--1--1--------------------------------------------------------------------------------------------------------------------------------------------------------------------------------------

_____________________________________________________

CIFRA

C
Boi, boi, boi
G
Boi da cara preta
C
pega essa criana que tem medo de careta

ACORDES

--0--

--3--

--1--

--0--

--0--

--0--

--2--

--0--

--3--

--2--

-----

--3--

Atirei o pau no gato - Cdigo e Tablatura - Aula de Violo

13

11 10 23 10 11 13

13

13

SOL F MI R MI F SOL SOL SOL

15 13 11 11 11
L SOL F F F

13

11 10 10 10

SOL F MI MI MI

21 21 15 15 15
D D L L L

17 15 13

13

13

SI L SOL SOL SOL

10 11 13 10 11 13 11 10 23 21
MI F SOL MI F SOL F MI R D

18 18
D D

__________________________________________________________________

TABLATURA

---3--1--0-----0--1--3--3--3-----5--3--1--1--1--1------3--1--0--0--0--------------3------------------------------------------------------------------------------------------------------------------------------------------------------------------------------------------------------------------------------------------------------------------------------------------------------------------------------------------------------------

--------5--5--5------7--5--3--3--3-----0--1--3----0--1--3--1--0--------1--1-------------------------------------------------------------3--1-------------------------------------------------------------------------------------------------------------------------------------------------------------------------------------------------------------------------

-------------------------------------------------------------------------

----8---8----------------------------------------------------------------------------------------

Brilha, brilha estrelinha - Cdigo e Tablatura

CDIGO

D D SOL SOL L L SOL


21 21 13

13 15 15 13

F F MI MI R R D
11 11 10 10 23 23 21

D D SOL SOL L L SOL

21 21 13

13 15 15 13

F F MI MI R R D
11 11 10 10 23 23 21

SOL SOL F F MI MI R
13

13 11 11 10 10 23

SOL SOL F F MI MI R
13

13 11 11 10 10 23

D D SOL SOL L L SOL


21 21 13

13 15 15 13

F F MI MI R R D
11 11 10 10 23 23 21

________________________________________________________

TABLATURA

--------3--3--5--5--3------1--1--0--0------------1--1----------------------------------3--3--1------------------------------------------------------------------------------------------------------------------------------------------------------------------------------------------------------

--------3--3--5--5--3------1--1--0--0------------1--1----------------------------------3--3--1------------------------------------------------------------------------------------------------------------------------------------------------------------------------------------------------------

--3--3--1--1--0--0---------3--3--1--1--0--0-------------------------3-------------------------3------------------------------------------------------------------------------------------------------------------------------------------------------------------------------------------------------

--------3--3--5--5--3------1--1--0--0-----------

--1--1----------------------------------3--3--1------------------------------------------------------------------------------------------------------------------------------------------------------------------------------------------------------

Msica da Coca-cola

CDIGO

MI D R MI D
10 21 23 10

21

D SOL F MI R
21

13 11 10 23

MI D R MI R
10 21 23 10 23
______________________________________________

TABLATURA

---0--------0----------3--1--0---------0-------0--------1--3-----1----1------------3-------1--3----3-

----------------------------------------------------------------------------------------------------------------------------------------------------------

D R MI F - Cdigo e Tablatura

D R MI F

TABLATURA

D R MI F F F
21 23 10 11 11 11

--------0--1--1--1-----------------------------1--3--------------------1--3--1--3--3--3---

D R D R R R
21 23 21 23 23 23

---------------------------------------------------------------------------------------------------------------------------------------

DO SOL F MI
21 13 11 10

MI MI

----------------------------------------------

10 10

D R MI F F F
21 23 10 11 11 11

-----3--1--0--0--0--------------0--1--1--1----1-----------------------1--3----------------------------------------------------------------------------------------------------------------------------------------------------------------------------------------------------

BRASILEIRINHO

Brasileirinho - Tablatura
--9--9--9--9--0--5--9--0--5--9--0--5--9--0--5--9--0--5--8------------------------------------------------------------------------------------------------------------------------------------------------------------------------------------------------------------------------------------------------------------------------------------------------------------------------------------------------------------0--5--8--0--5--8--0--5--8--0--5--8--0--5--9--0--5--9--0--5--9---------------------------------------------------------------------------------------------------------------------------------------------------------------------------------------------------------------------------------------------------------------------------------------------------------------------------------------------------------------------------------------------9--9--9--9--8--7--6--5---------------------------------------------------------------------------------------------------------------------------------------------------------------------------------------------------------------------------------------------------------------------------------------------------------------------------------------------------------------------------------0--2--3--4--3--2--0--2--3--4--3--2--0--2--3--4--3--2--0------------------------------------------------------------------------------------------------------------------------------------------------------------------------------------------------------------------------------------------------------------------------------------------------------------------------------------------------------------5--4--2--0--5--4--2--0--5--4--2--0-------------------------------------------------------------------------3--2--0--------------------------------------------------------------------------2--1-------------------------------------------------------------------------------------------------------------------------------------------------------------------------------------------------------------------------------------------0--2--4--2--0----0--2--0--------------------------0--3-----------------4-----------4--3--2--------------1--------------------------------------------------------2-----------------------------------------------------------------------------------------------------------------------------------------------------------------------------------0--2--3--4--------0--2--3--4-------0--2--3--4--3--2--0--5------------------------------------------------------------------------------------------------------------------------------------------------------------------------------------------------------------------------------------------------------------------------------------------------------------------------------------------------------------------0--2--4--5------0--2--4--5--4--2--0--4-------0--2--3--4------------------------------------------------------------------------------------------------------------------------------------------------------------------------------------------------------------------------------------------------------------------------------------------------------------------------------------------------------------2--4--2--0---------------------------------------------------------------3--2--0------------------------------------

---------------------------2---------------------------------------------------------------------------------------------------------------------------------------------------------------------------------------------------------------------------------------------------------------------------------------------0--1--0------------0--1--0-------------0--1--0-----------2-----------2------2--------------2-----2------------2-----2------------------2---------------------2---------------------------------------------------------------------------------------------------------------------------------------------------------1--0-----0--1--0-----0--1--0------------------------0--1--0--1--0--1--0--1--3--1----0
---------3------------3------------3--0------------0--3---------------------------------------------------------------------------------1------1-------------------------------------------------------------------------------------------2--------------------------------------------------------------------------------------------------------------------------------------------------------------------------------------------------------------------------------------------------5---4---3---2---1---0-------------------------------------------------4-----------------------------------------------------4---------------------------------------------------------------------------------------------------------------------------------------------1--1--1--1--0------------------------0--1--0--1--0--1--3--1-------3--1--0------------------3--0-----------0--3---------------------------------------------------------------------1-----1-------------------------------------------------------------------------------2-----------------------------------------------------------------------------------------------------------------------------------------------------------------------------------------------------------------------------------------5----------5---------5----------------3----------3----------3----------1-----------------------------------------------------------------------------------------------------------------------------------------------------------------------------------------------------------------------------------------------------1--0----------------0--1--0------------------0--1--0---------0---------------------2-----------2--0---------2------------2--1--------------2------2--------------------4------------------------------------------------------------------------------------------------------------------------------------------------------------------------------------------

Como grande o meu amor por voc - Roberto Carlos - Cifra e Tablatura

Dm7

G7

Eu tenho tanto pra lhe falar


Em

Am7

Mas com palavras no sei dizer


Dm7

G7

C7M

Como grande o meu amor por voc

Dm7

G7

E no h nada pra comparar


Em

Am7

Para poder lhe explicar


Dm7

G7

C7M

Como grande o meu amor por voc

Dm7

G7

Nem mesmo o cu nem as estrelas


C7M

Am7

Nem mesmo o mar e o infinito


Dm7

G7

Nada maior que o meu amor


C7M

Am7

Nem mais bonito ___

Dm7

G7

Me desespero a procurar
C7M

Am7

Alguma forma de lhe falar


Dm7

D7

G7

Como grande o meu amor por voc

Dm7

G7

Nunca se esquea, nem um segundo


Em

Am7

Que eu tenho o amor maior do mundo


Dm7

G7

C7M

Como grande o meu amor por voc


Tags: Vdeo aula de violo online para iniciante
mais4acordes
intermedirio

LA BAMBA
La Bamba - Cdigo - Tablatura - Cifra - Aula de Violo

CDIGO
50 54 42 40 44 42
60 64 52
40 40 54 52
____________________________________________________________
TABLATURA
--------------------------------------------------------------------------------------------------------------------------------------2--0--4--2------------0--0---------0--4---------------------2--------4--2----------------------0--4-----------------ACORDES
A
--0---2---2---2---0------

A
. .

--2---3---2---0----------

--0---0---1---2---2---0--

D E
D
/ . . / . . / . . :]

RITMO

Los Tres Caballeros


La Barca(TAB)
AUTOR: Roberto Cantoral
ALBUM: 20 Exitos

Enva el tono de "La Barca" a tu celular/mvil


Es mi primera tablatura espero y les guste este requinto

calidad:

tc

Enviado po

E
B
G
D
A
E

Ddim
Em
A7
--------------------12-12-12----14-12-10- 9-10-12----14-14
--7-10---7-10-8-7-8-12-12-12----12-12-12-11-11-11----11-11
--8-11---8-11-9-8-9------------------------------------------------------------------------------------------------------------------------------------------------------------------------------------------------------------------

E
B
G
D
A
E

D
Em
F#m
Fm
Em
--5-7-9-5-7-9----5-7-9-5-7-9---- 9-12-10- 9-7-7----12-----7-7-7-7-7-7----8-8-8-8-8-8----10-10-10-10-9-9----12-12------------------------------------------------------12-------------------------------------------------------------------------------------------------------------------------------------------------------------------------

E
B
G
D
A
E

Gm
----------------------------------------------------------8-10-12-8-10-12----8- 9-10-11----11-13-15-11-13-15------9- 9- 9-9- 9- 9----9-10-11-12----12-12-12-12-12-12-----------------------------------------------------------------------------------------------------------------------------------------------------------------------------

E
B
G
D
A
E

F#m
Fm
--12- 9-10-12- 9-10-12----11-8-9-11-8-9-11----------------10-10-10-10-10-10-10---- 9-9-9- 9-9-9- 9-----------------------------------------------------------------------------------------------------------------------------------------------------------------------------------------------------------------------------------------------

E
B
G
D
A
E

Em
A7 D
--10-7-5-3S7-7-5-3-2-------------------------------------- 8-8-7-5S8-8-7-5-3-------------------------------------------------------2-------------------------------------------------------0-----------------------------------------------------------------------------------------------------------------------------------------------------

Edim.
5
4
5
4
x

Luis Miguel
la Barca(TAB)
AUTOR: Roberto Cantoral
ALBUM: Master Pistas, Vol. 22

calidad:

lm

Enviado p
E

D#

F#m

B7

G#7

C#m

F#7

Am

G#m

C#7

D7

EbGDAE

TENGO MUCHO TIEMPO ESPERANDO ESTE REQUINTO Y COMO NADIE LO MANDA LO


DISQUE SAQUE
A-Am-E-F#m-G#m-Gm-F#m-------F#m/G#m/Am-----G#m-Gm-F#m-B7
AQUI EMPIEZAN LOS ACORDES OIGAN LA ROLA PARA QUE LES SALGA
|
V
e--4/7-7-----7----------7-14-14-|-16-14-12-11-12-14-14/16-16-|--7-9-11-7-9-11-7-9-117-9-11---|
B--6/9-9--9--9-10-9--10-9-14-14-|-16-16-14-12-14-16-16----16-|--9-9--9-9-9--9-9-9--99-9-12---|
G---------10---11-10-11---------|----------------------------|--------------------------------|
D-------------------------------|----------------------------|--------------------------------|
A-------------------------------|----------------------------|--------------------------------|
E-------------------------------|----------------------------|--------------------------------|
e-14-12-11-9--11-12-12/14--14-|--9---5-7-9-5-7-9-5-7-9-10-11-12-|--8--10-12-8--1012-8--10-12--|
B-16-14-12-11-12-14-14-----14-|--10--7-7-7-7-7-7-7-7-7-11-12-13-|--10-10-10-10-1010-10-10-10--|

G-----------------------------|---------------------------------|------------------------------|
D-----------------------------|---------------------------------|------------------------------|
A-----------------------------|---------------------------------|------------------------------|
E-----------------------------|---------------------------------|------------------------------|
e--14-11-12-14-11--12-13-|--10-11-13-10-11-12-9--7-5--5/10-9--7-5--|
B--14-12-12-12-12--12-11-|--11-11-11-11-11-12-10-9-7--7/12-10-9-7--|
G------------------------|-----------------------------------------|
D------------------------|-----------------------------------------|
A------------------------|-----------------------------------------|
E------------------------|-----------------------------------------|
VAYA PENSE QUE NUNCA ACABARIA, ESTA MEDIO VERVEADA, PERO SE PARECE
EL FINAL PUEDE QUE NI ESO POR QUE YA ME FASTIDIE, Y INGUESU ASI LE DEJO
TOTAL, CONFIO EN QUE ALGUIEN LO VA A CORREGIR Y ME VA A MANDAR LA
CORRECCION GRACIAS
E
D#
F#m
Dicen que la distancia es el olvido
B7
E
pero yo no concibo esa razon,
D#
F#m
porque yo seguire siendo el cautivo
B7
E G#7
de los caprichos de tu corazon.
C#m
G#7
C#m
Supiste enclarecer mis pensamientos,
F#7
B
me diste la verdad que soe,
A
ahuyentaste de mis tus sufrimientos
G#7
en la primera noche que te ame.
A
Am
Hoy mi playa se viste de amargura
G#m
C#7
porque tu barca tiene que partir
F#m
B7
a cruzar otros mares de locura
E
D7
C#7
cuide que no naufrague tu vivir.
A
Am
Cuando la luz del sol se este apagando
G#m
C#7
y te sientas cansada de vagar,
F#m
B7
piensa que yo por ti estare esperando
E
D7
C#7
hasta que tu decidas regresar
Y SE REPITE EL REQUINTO CON LOS ACORDES SOLO QUE SE TERMINA CON G#7
C#m
G#7
C#m
Supiste enclarecer mis pensamientos,
F#7
B
me diste la verdad que soe,
A
ahuyentaste de mis tus sufrimientos
G#7
en la primera noche que te ame.

A
Am
Hoy mi playa se viste de amargura
G#m
C#7
porque tu barca tiene que partir
F#m
B7
a cruzar otros mares de locura
E
D7
C#7
cuide que no naufrague tu vivir.
A
Am
Cuando la luz del sol se este apagando
G#m
C#7
y te sientas cansada de vagar,
F#m
B7
piensa que yo por ti estare esperando
E D#
hasta que tu decidas regresar
F#m
Am
G#m
hasta que tu decidas regresar.
EbGDAE
D# 4343XX
FINAL
e--4-7-9-12----B--4-9-9-9-----G--4-9-9-9-----D--------------A--------------E--------------Chale maestros me la raje para que nomas me dieran un puntillo bueno, esta es la
version
de los tres caballeros, no se si luis miguel la cante igual, pero ahi va
Esta es la que mas le dedico a Rosa Christy 'kitty', espero que te acuerdes de la
carta
y de los tiempos en que oiamos estas canciones en el sofa de tu casa ;) de ese cd la
saque
batalle pero va por ti