Tarrega Francisco - Recuerdos De La Alhambra Guitar Tab @ TabCrawler.

Com

New Search!
Not logged in... [ log in | register ]

TC Tabs Archive: TARREGA FRANCISCO / RECUERDOS DE LA ALHAMBRA (Guitar Tab)
TC Tablature Quality Rating: 1 / 5 (0 votes)
This Guitar Tab for RECUERDOS DE LA ALHAMBRA is available in the
TabCrawler Printable Version.

Did This Guitar Tab Help You?
You must log in to rate this Guitar Tab!

To rate, comment, or edit this Guitar Tab you must log in

#
Date: Mon, 04 Nov 1996 19:33:28 +0100
From: Goran Stefanovic
Subject: Recuerdos de la Alhambra
Here is the tablature of Recuerdos de la Alhambra...
Recuerdos de la Alhambra by Francisco Tarrega
with fingering
Transcription: Dragoslav Nikolic
Tablature: Goran Stefanovic (gorans@techno.opennet.org)
Fingering:
left hand
1 - index
2 - middle
3 - ring
4 - little
p
h
s
====

-

right hand
p - thumb
i - index
m - middle
a - ring

pulloff
hammeron
slide
sustain

t
-5- = -5-5-5- - tremolo
a m i

Moderato
|

|
|
|
|
|
t
t
t
t
t
t
t
t
t
t
t
t
E--------------------------|-------------------------|
B----5---5---5---5---3---3-|--s1---1---1---1s--3---3-|
G----------5===----4===----|--s------2===---s4===----|
D------2===----2===----2===|-----2===----2===----2===|
A--0===--------------------|-0===--------------------|
E--------------------------|-------------------------|
0 4 1
3
1
3 2 1 2
0 2 4
3
4
3
1

|

|
|
|
|
|
t
t
t
t
t
t
t
t
t
t
t
t
E--------------------------|-------------------------|
B----5---5---5---5---5---5-|---5---5---5---5---6---6-|
G----------5===----5===----|---------5===---s7===----|
D------2===----2===----2===|-----2===----2===----5===|

http://www.tabcrawler.com/archive.php?action=view&file_id...67&artist=tarrega francisco&song=recuerdos de la alhambra (1 of 6)30/11/2004 22:27:29

Tarrega Francisco - Recuerdos De La Alhambra Guitar Tab @ TabCrawler.Com

A--0===--------------------|-0===--------------------|
E--------------------------|-------------------------|
0 4 1
3
1
3
1
0 4 1
3
1
3 2 1

|

|

|
|
|
|
V..................................
t
t
t
t
t
t
t
t
t
t
t
t :
E----------------------------|-------------------------|
B---s8----8---8----8---6---6-|---5---5---5---5---6---6-|
G-----------9===-----7===----|---------5===----7===----|
D------------------------5===|-----5===----5===----5===|
A------10===----10===--------|-------------------------|
E--8===----------------------|-8===--------------------|
1 2 4
3
4
3 2
4
3 2

|

|
|
|
|
|
t
t
t
t
t
t
t
t
t
t
t
t
E-----------------------------|----------------------------|
B----8----8---8----8---8----8-|---8----8---8----8---8----8-|
G-----------9===-----9===-----|----------9===-----9===-----|
D-----------------------------|----------------------------|
A------10===----10===----10===|-----10===----10===----10===|
E--8===-----------------------|-8===-----------------------|
1 2 4
3
4
3
4
1 2 4
3
4
3
4

|
|
|
|
|
|
VIII.................
t
t
t
t: t
t
t
t
t
t
t
t
E----8----8----8----8---7----7-|-----------------------------------|
B-----------10===-----8===-----|---10----10----10----10--s12----12-|
G------------------------------|------------10====-----------10====|
D------10===-----10===----10===|------10====------10====-----------|
A--8===------------------------|-8====------------------0====------|
E------------------------------|-----------------------------------|
3
4
3
2 4 3
1 4 3
2
3
0
2

|
|
|
|
|
|
IX..............................................................
t
t
t
t
t
t
t
t
t
t
:
E----------------------------------|----------------------------|
B----10---10p12h10---9---9---9---9-|---9----9---9----9---9----9-|
G------------------9===----9===----|----------9===-----9===-----|
D-------9==========----9===----9===|-----12===----12===----12===|
A----------------------------------|----------------------------|
E--0====---------------------------|-0===-----------------------|
0 2
2 4 2
0
3
3
3

|

|
|
t
t
t
t
t
t
t
t
t
t
t
t
E-----------------------------------|----------------------------|
B----11----11---11----11---10----10-|--s8---8---8---8----10---10-|
G-------------9====------9====------|---------9===----10====-----|
D-------11====-----11====-----11====|-----7===----7===------7====|
A--0====----------------------------|----------------------------|
E-----------------------------------|-9===-----------------------|
0 4 3
1
3
1 2 3
3 2 1
4
1
3 4 1

|

|
|
|
|
|
t
t
t
t
t
t
t
t
t
t
t
E-------------------------------|-------------------------|
B----8---8p10h8--s6---6---6---6-|---6---6---6---6---6---6-|
G------9=======s7===----7===----|---------7===----7===----|
D--0===-------------7===----7===|-----7===----7===----7===|
A-------------------------------|-5===--------------------|
E-------------------------------|-------------------------|
0 2 3 2 4 2 3 2 4
3
4
1 2 4
3
4
3
4

|

|

|

|
|
|
I........................
t
t
t
t
t
t
t
t
t
t
t
t :
E----0---0---0---0---------|-------------------------|
B----------0===------3---3-|---1---1---1---1---3---3-|

http://www.tabcrawler.com/archive.php?action=view&file_id...67&artist=tarrega francisco&song=recuerdos de la alhambra (2 of 6)30/11/2004 22:27:29

Tarrega Francisco - Recuerdos De La Alhambra Guitar Tab @ TabCrawler.Com

G------2===----2===4===2===|---------2===----2===----|
D--0===--------------------|-----1===----1===----1===|
A--------------------------|-------------------------|
E--------------------------|-1===--------------------|
0 0 2
2
4 3 2
2
2 4

|

|
|
|
|
|
t
t
t
t
t
t
t
t
t
t
t
E------------------------------|--------------------------||
B----1---1p3h1---0---0---0---0-|---0---0---0---0---0---0--||
G--------------1===----1===----|---------1===----1===----o||
D------2=======----2===----2===|-----2===----2===----2===o||
A------------------------------|--------------------------||
E--0===------------------------|-0===---------------------||
0 1 3 1 4 1 2
3
2
3
0
3
2
3
2
3

|

|
|
|
|
|
t
t
t
t
t
t
t
t
t
t
t
t
E----0---0---0---0---------|-------------------------|
B----------2===------3---3-|---2---2---2---2---3---3-|
G------------------4===----|---------2===----4===----|
D------2===----2===----2===|-----2===----2===----2===|
A--0===--------------------|-0===--------------------|
E--------------------------|-------------------------|
0
1
2
1
4 3 1 3
0 2 1
4 3

|

|
|
|
|
|
t
t
t
t
t
t
t
t
t
t
t
t
E----0---0---0---0---0---0-|---0---0---0---0---0---0-|
B----------2===----2===----|---------2===----2===----|
G--------------------------|-------------------------|
D------2===----2===----2===|-----2===----2===----2===|
A--0===--------------------|-0===--------------------|
E--------------------------|-------------------------|
0
1
2
1
2
1
0
1
2
1
2
1

|

|
|
|
|
|
t
t
t
t
t
t
t
t
t
t
t
t
E----2---2---2---2---2---2-|--s10----10----10----10---2---2-|
B----------3===----3===----|------------12====------3===----|
G--------------------------|--------------------------------|
D------4===----4===----4===|------12====------12====----4===|
A--0===--------------------|-0====--------------------------|
E--------------------------|--------------------------------|
0 1 3
2
3
2
3
0 1 3
4
3
2 1 3

|

|
|
|
|
|
t
t
t
t
t
t
t
t
t
t
t
E----2---2p4h2---0---0---0---0-|---0---0---0---0---0---0-|
B------3=======2===----2===----|---------2===----2===----|
G------------------------------|-------------------------|
D------------------2===----2===|-----2===----2===----2===|
A--0===------------------------|-0===--------------------|
E------------------------------|-------------------------|
0 1 2 1 4 1 2
1
2
1
0
1
2
1
2
1

|
|
|
|
|
|
II........................IV........................
t
t
t
t
t
t :
t
t
t
t
t
t
E----5---5---5---5---5---5-|---4---4---4---4---------|
B--------------2===--------|-------------4===--4---4-|
G----------2===----2===----|---------5===----5===----|
D------4===------------4===|-----6===------------6===|
A--------------------------|-------------------------|
E--2===--------------------|-4===--------------------|
4 3
3
3
2
2
3

|
|
|
|
|
|
....................................................
t
t
t
t
t
t
t
t
t
t
t
t :
E--------------------------|-------------------------|
B----7---7---5---5---5---5-|---5---5---5---5---5---5-|

http://www.tabcrawler.com/archive.php?action=view&file_id...67&artist=tarrega francisco&song=recuerdos de la alhambra (3 of 6)30/11/2004 22:27:29

Tarrega Francisco - Recuerdos De La Alhambra Guitar Tab @ TabCrawler.Com

G----------6===----6===----|---------6===----6===----|
D------6===----6===----6===|-----6===----6===----6===|
A--4===--------------------|-4===--------------------|
E--------------------------|-------------------------|
4 3
4 2 3
4
3
2 3
4
3
4
3

|

|

|
|
|
II...............
t
t
t
t
t
t
t
t
t
t: t
t
E--------------------------|-------------------------|
B----3---3---3---3---3---3-|---2---2---2---2---0---0-|
G--------------------------|-------------------------|
D------3===3===0===2===3===|-----2===2===2===----0===|
A--2===--------------------|-------------------------|
E--------------------------|-0===------------0===----|
1 4 3
2
3
0

|

|

|

|

__|_______|_______|_________
|1.
|
II...........................|..........................|
t
t
t
t
t |
t
t
t
t
t
t :|
E------------------------------|--------------------------||
B------------------------------|-------------------2---3--||
G----4---4h6p4---2---2---2---2-|---2---2---2---4-2===4===o||
D------2=======2===2===4===6===|-----2===----2===--------o||
A--0===------------------------|-0===----4===-------------||
E------------------------------|--------------------------||
0 2
2 4 2
2
4
0
3
4
3

__|_______|_______|________
|2.
|
| II......................| |
|
|
|
t
t
t
t
t
t:|
t
t
t
t
t
t
E--------------------------|-------------------------|
B--------------------------|-------------------------|
G----2---2---2---2---2---2-|---2---2---2---2---2---2-|
D------2===2===2===2===2===|-----3===3===3===3===3===|
A--0===--------------------|-0===--------------------|
E--------------------------|-------------------------|
0
0
3
3
3
3
3

|

|
|
|
|
|
t
t
t
t
t
t
t
t
t
t
t
t
E--------------------------|---0---0---0---0---0---0-|
B----0---0---1---1---3---3-|----s----2===----2===----|
G----------2===----2===----|-------------------------|
D------3===----3===----3===|----s2===----2===----2===|
A--0===--------------------|-0===--------------------|
E--------------------------|-------------------------|
0
3
2 1 3
2 4 3
0
3
4
3
4
3

|

|
|
|
|
|
t
t
t
t
t
t
t
t
t
t
t
t
E----0---0---0---0---0---0-|-------------------------|
B----------2===----2===----|---5---5---5---5---5---5-|
G--------------------------|-------------------------|
D------2===----2===----2===|-----6===6===6===6===6===|
A--0===--------------------|-------------------------|
E--------------------------|-0===--------------------|
0
1
2
1
2
1
0 2 3
3
3
3
3

|

|

|
|
|
|
II....
t
t
t
t: t
t
t
t
t
t
t
t
E--------------------------|-------------------------|
B----3---3---2---2---0---0-|-------------------------|
G--------------------------|---2---2---2---2---2---2-|
D------4===2===2===----0===|-----2===2===3===4===3===|
A--------------------------|-0===--------------------|
E--0===------------0===----|-------------------------|
0 2 3
0 2 1
3
4
3

http://www.tabcrawler.com/archive.php?action=view&file_id...67&artist=tarrega francisco&song=recuerdos de la alhambra (4 of 6)30/11/2004 22:27:29

Tarrega Francisco - Recuerdos De La Alhambra Guitar Tab @ TabCrawler.Com

|

|
|
|
|
|
t
t
t
t
t
t
t
t
t
t
t
t
E--------------------------|-------------------------|
B--------------------------|-------------------------|
G----2---2---2---2---2---2-|---2---2---2---2---2---2-|
D------2===2===2===2===2===|-----3===3===3===3===3===|
A--0===--------------------|-0===--------------------|
E--------------------------|-------------------------|
0 2 1
0 2 3

|

|
|
|
|
|
t
t
t
t
t
t
t
t
t
t
t
t
E--------------------------|---0---0---0---0---0---0-|
B----0---0---1---1---3---3-|---------2===----2===----|
G----------2===----2===----|-------------------------|
D------3===----3===----3===|-----2===----2===----2===|
A--0===--------------------|-0===--------------------|
E--------------------------|-------------------------|
0
3
2 1 3
2 4 3
0 4 3
4
3
4
3

|

|
|
|
|
|
t
t
t
t
t
t
t
t
t
t
t
t
E----0---0---0---0---0---0-|---4---4---4---4---4---4-|
B----------2===----2===----|---------5===----5===----|
G--------------------------|-------------------------|
D------2===----2===----2===|-----2===----2===----2===|
A--0===--------------------|-------------------------|
E--------------------------|-0===--------------------|
0
1
2
1
2
1
0 3 1
4
1
4
1

|
|
|
|
|
|
II.......
II................................
t
t: t
t
t
t
t
t
t
t
t
t
E----2---2---0---0---------|-------------------------|
B----------2===------3---3-|---2---2---2---2---2---2-|
G------------------4===----|---------2===--------2===|
D------2===----2===----2===|-----2===----2===4===----|
A--------------------------|-0===--------------------|
E--0===--------------------|-------------------------|
0
2
1
3 2
0
3

|
|
|
|
|
|
....................................................
t
t
t
t
t
t
t
t
t
t
t
t :
E--------------------------|-------------------------|
B----2---2---2---2---2---2-|---2---2---2---2---2---2-|
G----------2===------------|---------2===------------|
D------2===----------------|-----2===----------------|
A--0===------------3===4===|-0===------------3===4===|
E--------------0===--------|-------------0===--------|
0
2
3
0
2
3

E------------------0--------|-12=====================|----------------------||
B--------------2------s10---|-10=====================|----------------------||
G----------2----------------|------------------------|-2====================||
D------2--------------------|-11=====================|-2====================||
A--0========================|--0=====================|-4====================||
E---------------------------|------------------------|-5====================||
p
i
m
a
m
4
1
0
1
2
2
2
1
3
3
4
Goran

.--------.
/
|
|

\
======

\
|
.'
|

__
| |
`--'
|--|

|
|
/
|
`.
|

http://www.tabcrawler.com/archive.php?action=view&file_id...67&artist=tarrega francisco&song=recuerdos de la alhambra (5 of 6)30/11/2004 22:27:29

Tarrega Francisco - Recuerdos De La Alhambra Guitar Tab @ TabCrawler.Com

\

|--|
/
`--|--|--'
|--|
|--|
|--|
|--|
|--|
|--|
|__|
/
\
-|# #|-|# #|-|# #|`----'

COMMENTS
You have not posted a comment for this file yet. post one now!

HOME :: ARTICLES :: GUITAR TABS :: LYRICS :: PRIVACY STATEMENT :: E-STORE :: FORUMS :: TC
LINKS :: ADVERTISE! :: CONTACT TC

http://www.tabcrawler.com/archive.php?action=view&file_id...67&artist=tarrega francisco&song=recuerdos de la alhambra (6 of 6)30/11/2004 22:27:29