You are on page 1of 4

YOUR LOVE

ALAMID
FINGERSTYLE
ARRANGED AND TABBED BY: HIROSHI NOCUM
SUBSCRIBE ME
FACEBOOK PAGE: HIROSHI NOCUM
https://www.facebook.com/Hiro.nocum.guitarist

YOUTUBE CHANNEL: HIROSHI NOCUM


http://www.youtube.com/c/HiroshiNocum

TUNING: STANDARD
CAPO: NONE
INTRO: Em Bm7 C9
Am Bm7 C9 (2x)
e|-------2h3-2---|---------|-15-14---------------|
B|-----3-------3-|-7h8p7---|-------15------------|
G|---4-----------|-------7-|----------12-11------|
D|---------------|---------|----------------12\2-|
A|---------------|---------|---------------------|
E|-0-------------|---------|---------------------|
e|-------3---|-2-----|-3-------0-----0-----|-------3---|-2-----|----------7----------------------|
B|-1---------|-----3-|-3---3-------3---3---|-1---------|-----3-|-8---8h10---10-8---8---7---7-----|
G|---0-----0-|---0---|---0---0---0-------0-|---0-----0-|---0---|-7-7-------------7---7-7-7---7-9-|
D|-----2-----|-------|---------------------|-----2-----|-------|---------------------------------|
A|-0-----0---|-2-----|-3-------3-----------|-0-----0---|-2-----|---------------------------------|
E|-----------|-------|---------------------|-----------|-------|-8--------8----8-------8-------8-|
e|----------------------------|
B|----------------------------|
G|---9----7---7---------------|
D|-0---0----0---0-10---10-9-7-|
A|----------------------------|
E|--------8-------8--8----8---|

1st VERSE: G D C9 (4x)


e|---------|---------|-----------0---------|---------|---------|---------------------|
B|---------|---------|-------------3-------|---------|---------|---------------------|
G|-0-------|-------0-|-0-------------0-----|-0-0-0-0-|---------|-----0---0---0h2-0---|
D|---0-0-0-|---4-4---|---2-2---2---------2-|---------|-4-4-4-4-|-2h4---2---2-------0-|
A|---------|-5-------|-3-----3---------3---|---------|-5-------|-3-----3-------------|
E|-3-------|---------|---------------------|-3-------|---------|---------------------|
e|---------|---------|-----------0---------|---------|-------|-----------------------|
B|---------|---------|-------------3-------|---------|-------|-----------------------|
G|---------|-------0-|-0-------------0-----|-0-0-0-0-|-------|-----0-----------------|
D|---0-0-0-|---4-4---|---2-2---2---------2-|---------|-4-4-4-|-2h4---2---2-4---------|
A|---------|-5-------|-3-----3---------3---|---------|-5-----|-3-----3-3-------------|
E|-3-------|---------|---------------------|-3-------|-------|-----------------------|

REFRAIN: Em Bm7 C9 (4x) D


e|-------|-----------|-------------------|-------|---------|-----------0----------------------|
B|-------|-----------|---------3---------|-------|-------0-|-0-----------3--------------------|
G|-0-0-0-|---0-0-----|-----------0-------|-0-0-0-|---0-2---|---0-0---------0------------------|
D|-------|-4-----0-0-|---2---2-------2-4-|-------|-4-------|---------2---------2--------------|
A|-------|-2---------|-3---3-------3-----|-------|-2-------|-3-----3---------3----------------|
E|-0-----|-----------|-------------------|-0-----|---------|----------------------------------|
e|-----------|---------|-------------------|-----------|---------|-------|--------------------|
B|-----------|---------|-----------0-------|-----------|---------|-------|---7---8---10---7h8-|
G|-------0---|---0-0---|-----0---0---0-----|-------0---|---0-0-0-|-0-0h2-|-2-7-7---7----7-----|
D|-----2---2-|-4-----0-|-0h2---2---------2-|-----2---2-|-4-------|-------|-0-0-------0--------|
A|---2-------|-2-------|-3-------3-----3---|---2-------|-2-------|-3-----|--------------------|
E|-0---------|---------|-------------------|-0---------|---------|-------|--------------------|

CHORUS: G D Em C (4x)
e|---------|-----------|---------|-------------|---------|----------|-------|---------|
B|---------|-3-1-0-----|---------|-3-1---0-----|---------|----------|-------|-1-0-----|
G|-0---0---|-------2-0-|-----0---|-----0---2-0-|-----0-0-|-0------0-|-0h2-0-|-----2p0-|
D|---0---0-|-0---------|---2---2-|-------------|---0-----|---0-0----|-------|---------|
A|---------|-----------|---------|-3-----3-----|---------|-5--------|-------|-3-------|
E|-3-------|-----------|-0-------|-------------|-3-------|----------|-0-----|---------|
e|---------|-----------|---------|-------------|---------|----------|-------|---------|
B|---------|-3-1-0-----|---------|-3-1---0-----|---------|----------|-------|---------|
G|-0---0---|-------2-0-|-----0---|-----0---2-0-|-----0-0-|-0------0-|-0h2-0-|-0^------|
D|---0---0-|-0---------|---2---2-|-------------|---0-----|---0-0----|-------|-2^------|
A|---------|-----------|---------|-3-----3-----|---------|-5--------|-------|-3^------|
E|-3-------|-----------|-0-------|-------------|-3-------|----------|-0-----|---------|
Note: Watch my fingerstyle cover of Your Love by Alamid on my Youtube Channel or on my Facebook Page (links
provided on the 1st page) for you to study these tabs in a more detailed way Kindly put a credit or mention me
if you are going to cover this song using my tabs. Thank you -Hiroshi Nocum

INTRO FOR 2nd VERSE: Em7 D C (2x)


e|-------------|---------|-------3-------|---------|-------|-------8-7------|
B|-5-7-8-----8-|-7-----7-|-5-----5---5/7-|-8---8---|-7---7-|-8---8-8-8-8/10-|
G|-----7---7---|-7---7---|-5---5---5-----|---0---0-|-7-7---|-7-9---0-0------|
D|-------9-----|---7-----|---5-----------|---------|-------|----------------|
A|-------------|-5-------|-3-------------|---------|-------|----------------|
E|-----0-------|---------|---------------|-0-------|-7-----|-8-----8--------|

2nd VERSE: G D C9 (4x)


e|-3-3^-----|-----2-2^-3-3-|---0-0-0^-----0---0^---|-3-3-3-3^-3-|-2-3-3^-3/5-3---3^-3-----3^------|
B|-3-3^-3-3-|-----3-3^-3-3-|---3-3-3^---3---3-3^-3-|-3-3-3-3^-3-|-3-3-3^-3/5-3---3^-3-3---3^-3----|
G|-0-0^-0-0-|---2---2^-----|-------0^---------0^---|-0-----0^---|-----2^-0-----0-0^-----0-0^---0--|
D|----------|-0------------|-------0^--------------|------------|-0---0^--------------------------|
A|----------|--------------|-3--------3------------|------------|------------3------3-------------|
E|-3--------|--------------|-----------------------|-3----------|---------------------------------|
e|---3^-----|-----2-2^-3-3-|---0-0-0^-----0---0^---|-3-3-3-3^-3-|-2-3--3/5^-5/7-3---3^-3-----0h2^-|
B|---3^-3-3-|-----3-3^-3-3-|---3-3-3^---3---3-3^-3-|-3-3-3-3^-3-|-3-3--3/5^-5/7-3---3^-3-3---3^---|
G|---0^-0-0-|---2---2^-----|-------0^---------0^---|-0-----0^---|------0^-------0-0-0^-----0-0^---|
D|----------|-0------------|-------0^--------------|------------|-0-------------------------------|
A|----------|--------------|-3--------3------------|------------|---------------3------3----------|
E|-3--------|--------------|-----------------------|-3----------|---------------------------------|

REFRAIN: Em Bm7 C9 (4x) D


e|-3-3^-3-|-2h3-3-3^-----|---0-0^-----0--------|----------|----------7-|-7-----7^---------7^-----|
B|-3-3^-3-|-3---3-3^-3-3-|---3-3^---3---3-5-7--|-7/8-8^-8-|-7-8-8/10-0-|-8-8-8-8^-----8---8^-8---|
G|---0^---|-------0^-----|---0-0^--------------|-0---0^---|-7----------|-0-0-0-0^---0---0-0^-0---|
D|--------|--------------|---------------------|----------|------------|-------------------------|
A|--------|-2------------|-3------3------------|----------|------------|-------------------------|
E|-0------|--------------|---------------------|-0--------|-7----------|-8--------8------------8-|
e|-------------|------------|----------0--------|--------------|------------|--------|
B|----8-8-8^---|---8-8-8^---|---8-8^-8---8-8^-8-|-----8-8-8^---|---8-8-8^-8-|-8-8/10-|
G|--7-----7^---|-7-----7^-7-|-7---7^-7-----7^---|---7-----7^---|-7-----7^---|-7------|
D|-------------|------------|-------------------|--------------|------------|--------|
A|-------------|------------|-------------------|--------------|------------|--------|
E|-0---------0-|-7----------|-8------8----------|-0----------0-|-7----------|-8------|
e|-----------------------|
B|-10-7---8^---10---7h8^-|
G|-7----7-7^-7----7-7^---|
D|-0--0--------0---------|
A|-----------------------|
E|-----------------------|

CHORUS: G D Em C (8x)
e|-3---3-3^-|-3/10-8-7^------|----------|-8h10-8-----------|-3---3^-|-3-----3^-3-|-3/5\3-3^---|
B|-3-3---3^-|-3/10---0^-8/10-|-8---8-8^-|-8----8-10/12\10^-|-3---3^-|-3---3-3^---|-------3^---|
G|----------|----------------|-7-7---7^-|--------8^--------|---0----|---0--------|------------|
D|----------|-0--------------|----------|------------------|--------|-0----------|------------|
A|----------|----------------|----------|------------------|--------|------------|------------|
E|-3--------|----------------|-0--------|-8----------------|-3------|------------|-0----------|
e|-3-----3^---|-3---3-3^-|-3/10-8-7^------|----------|-8h10-8-----------|-3---3^-|-3-----3^-3-|
B|-3-3---3^-3-|-3-3---3^-|-3/10---0^-8/10-|-8---8-8^-|-8----8-10/12\10^-|-3---3^-|-3---3-3^---|
G|-----0-0^---|----------|----------------|-7-7---7^-|--------8^--------|---0----|---0--------|
D|------------|----------|-0--------------|----------|------------------|--------|-0----------|
A|-3----------|----------|----------------|----------|------------------|--------|------------|
E|------------|-3--------|----------------|-0--------|-8----------------|-3------|------------|
e|-3/5\3-3^-|-3-----3^---|
B|-------3^-|-3-3---3^-3-|
G|----------|-----0-0^---|
D|----------|------------|
A|----------|-3----------|
E|-0--------|------------|
e|-3---3-3^-|-3/10-8-7^------|----------|-8h10-8-----------|-3---3^-|-3-----3^-3-|-3/5\3-3^---|
B|-3-3---3^-|-3/10---0^-8/10-|-8---8-8^-|-8----8-10/12\10^-|-3---3^-|-3---3-3^---|-------3^---|
G|----------|----------------|-7-7---7^-|--------8^--------|---0----|---0--------|------------|
D|----------|-0--------------|----------|------------------|--------|-0----------|------------|
A|----------|----------------|----------|------------------|--------|------------|------------|
E|-3--------|----------------|-0--------|-8----------------|-3------|------------|-0----------|
e|-3-2---3^---|-3---3-3^-|-3/10-8-7^------|----------|-8h10-8-----------|-3---3^-|-3-----3^-3-|
B|-3-3-3-3^-3-|-3-3---3^-|-3/10---0^-8/10-|-8---8-8^-|-8----8-10/12\10^-|-3---3^-|-3---3-3^---|
G|-------0^---|----------|----------------|-7-7---7^-|--------8^--------|---0----|---0--------|
D|------------|----------|-0--------------|----------|------------------|--------|-0----------|
A|-3----------|----------|----------------|----------|------------------|--------|------------|
E|------------|-3--------|----------------|-0--------|-8----------------|-3------|------------|
e|-3/5\3-3^-|-3-----3^---|
B|-------3^-|-3-3---3^-3-|
G|----------|-----0-0^---|
D|----------|------------|
A|----------|-3----------|
E|-0--------|------------|

Note: Watch my fingerstyle cover of Your Love by Alamid on my Youtube Channel or on my Facebook Page (links
provided on the 1st page) for you to study these tabs in a more detailed way Kindly put a credit or mention me
if you are going to cover this song using my tabs. Thank you -Hiroshi Nocum

ADLIB: G D Em C9 Em Bm C9

G D Em C (4x)

e|-------0-----0-----0-------|-------0-----0-----0-------|-------0-----0-----0-------|
B|---3-----3-----3-----3---3-|---3-----3-----3-----3---3-|---3-----3-----3-----3---3-|
G|---------------------------|---------------------------|---------------------------|
D|---------------------------|-0---0-----0-----0-----0---|---------------------------|
A|---------------------------|---------------------------|---------------------------|
E|-3---3-----3-----3-----3---|---------------------------|-0---0-----0-----0-----0---|
e|-2^-2-0^--2^-2-0^-|---------------------------------|
B|-3^-3-3^--3^-3-3^-|---------------------------------|
G|-0^---0^--0^---0^-|---------------------------------|
D|-0^---2^--0^---2^-|-4h5-----------------------4-4-5-|
A|-3^---3^--3^---3^-|-----5-3p2-3-3-3/5-5-5/7-7-------|
E|------------------|---------------------------------|
e|-------|---------|---------|---------------|-----|-----------|-----------|---------|
B|-------|-3-1-0---|---------|-3-1---0h1-0h1-|-----|-----------|-----------|-3-x-----|
G|-0-0-x-|-0-----2-|-----0-x-|-0-0-0-x-------|-0-0-|-0-------0-|-------0-x-|-0-0h2-0-|
D|-0-0---|-0---x---|-------x-|---------------|-----|---0-0-0---|-----2---x-|---------|
A|-------|---------|---2-----|-3-----x-------|---x-|-5-----x---|---2-------|-3-x-----|
E|-3---x-|---------|-0-----x-|---------------|-3-x-|-----------|-0-------x-|---------|
e|---------|---------|---------|---------|-----------|---------|-----------|---3-----|
B|---------|-3-x-----|---------|---------|-----------|---------|-----------|-3---x---|
G|-0h2-0-x-|-0-0h2-0-|-0h2-0-x-|-----0-x-|-------0-x-|---0---0-|-------0-x-|-0-------|
D|-0-------|-0-x-----|---------|-0h2-----|-----0-----|-4---x---|-----2-----|---------|
A|-------x-|---------|---------|-3-----x-|---2-------|-5---x---|---2-------|-3---x---|
E|-3-----x-|---------|-0-----x-|---------|-3-------x-|---------|-0-------x-|---------|

CHORUS: G D Em C (8x)
e|-3---3-3^-|-3/10-8-7^------|----------|-8h10-8-----------|-3---3^-|-3-----3^-3-|-3/5\3-3^---|
B|-3-3---3^-|-3/10---0^-8/10-|-8---8-8^-|-8----8-10/12\10^-|-3---3^-|-3---3-3^---|-------3^---|
G|-------x--|----------------|-7-7---7^-|--------8^--------|---0----|---0--------|-------x----|
D|----------|-0------x-------|----------|--------x---------|--------|-0-----x----|------------|
A|----------|----------------|----------|------------------|--------|------------|------------|
E|-3-----x--|----------------|-0-----x--|-8------x---------|-3---x--|------------|-0-----x----|
e|-3-----3^---|-3---3-3^-|-3/10-8-7^------|----------|-8h10-8-----------|-3---3^-|-3-----3^-3-|
B|-3-3---3^-3-|-3-3---3^-|-3/10---0^-8/10-|-8---8-8^-|-8----8-10/12\10^-|-3---3^-|-3---3-3^---|
G|-----0-0^---|-------x--|----------------|-7-7---7^-|--------8^--------|---0-x--|---0--------|
D|------------|----------|-0------x-------|----------|--------x---------|--------|-0-----x----|
A|-3-----x----|----------|----------------|----------|------------------|--------|------------|
E|------------|-3-----x--|----------------|-0-----x--|-8------x---------|-3---x--|------------|
e|-3/5\3-3^-|-3-----3^---|
B|-------3^-|-3-3---3^-3-|
G|----------|-----0-0^---|
D|----------|------------|
A|----------|-3-----x----|
E|-0-----x--|------------|
e|-3---3-3^-|-3/10-8-7^------|----------|-8h10-8-----------|-3---3^-|-3-----3^-3-|-3/5\3-3^---|
B|-3-3---3^-|-3/10---0^-8/10-|-8---8-8^-|-8----8-10/12\10^-|-3---3^-|-3---3-3^---|-------3^---|
G|-------x--|----------------|-7-7---7^-|--------8^--------|---0----|---0--------|-------x----|
D|----------|-0------x-------|----------|--------x---------|--------|-0-----x----|------------|
A|----------|----------------|----------|------------------|--------|------------|------------|
E|-3-----x--|----------------|-0-----x--|-8------x---------|-3---x--|------------|-0-----x----|
e|-3-----3^---|-3---3-3^-|-3/10-8-7^------|----------|-8h10-8-----------|-3---3^-|-3-----3^-3-|
B|-3-3---3^-3-|-3-3---3^-|-3/10---0^-8/10-|-8---8-8^-|-8----8-10/12\10^-|-3---3^-|-3---3-3^---|
G|-----0-0^---|-------x--|----------------|-7-7---7^-|--------8^--------|---0-x--|---0--------|
D|------------|----------|-0------x-------|----------|--------x---------|--------|-0-----x----|
A|-3-----x----|----------|----------------|----------|------------------|--------|------------|
E|------------|-3-----x--|----------------|-0-----x--|-8------x---------|-3---x--|------------|
e|-3/5\3-3^-|-3-----3^---|
B|-------3^-|-3-3---3^-3-|
G|----------|-----0-0^---|
D|----------|------------|
A|----------|-3-----x----|
E|-0-----x--|------------|

OUTRO: G D Em C9 (2x) ends in G


e|-3---3-3^-|-3---3^---|-3---3-3^-|-3---3^---|
B|-3-3---3^-|-3-3-3^---|-3-3---3^-|-3-3-3^---|
G|-------x--|----------|----------|----------|
D|----------|-0---x--0-|-------x--|----------|
A|----------|----------|----------|-3---x--3-|
E|-3-----x--|----------|-0-----x--|----------|
e|-3---3-3^-|-3---3^---|-3---3-3^-|-3---3^---|
B|-3-3---3^-|-3-3-3^---|-3-3---3^-|-3-3-3^---|
G|-------x--|----------|----------|----------|
D|----------|-0---x--0-|-------x--|----------|
A|----------|----------|----------|-3---x--3-|
E|-3-----x--|----------|-0-----x--|----------|

ends in G

Note: Watch my fingerstyle cover of Your Love by Alamid on my Youtube Channel or on my Facebook Page (links
provided on the 1st page) for you to study these tabs in a more detailed way Kindly put a credit or mention me
if you are going to cover this song using my tabs. Thank you -Hiroshi Nocum

LEGENDS:
|
|
|
|
|
|

/
\
p
h
^
x

SLIDE UP
SLIDE DOWN
PULL-OFF
HAMMER-ON
STRUM DOWN
MUTED NOTE/SLAP

YOUR LOVE ALAMID (FINGERSTYLE)


ARRANGED AND PERFORMED BY: HIROSHI NOCUM
LINK: https://www.youtube.com/watch?v=50-Ufc0RaKg
DONT FORGET TO LIKE AND SHARE MY FINGERSTYLE COVERS BECAUSE IT WILL BOOST ME TO DO MORE
COVERS WITH FREE TABS
THANK YOU STAY TUNE!

Note: Watch my fingerstyle cover of Your Love by Alamid on my Youtube Channel or on my Facebook Page (links
provided on the 1st page) for you to study these tabs in a more detailed way Kindly put a credit or mention me
if you are going to cover this song using my tabs. Thank you -Hiroshi Nocum