You are on page 1of 41

Rush - A Farewell To Kings (1977 album)

Tracklist:
1.
2.
3.
4.
5.
6.

A Farewell To Kings
Xanadu
Closer To The Heart
Cinderella Man
Madrigal
Cygnus X-1 Book I: The Voyage

A Farewell To Kings:
[Intro] - Fingerpicked on a nylon stringed acoustic guitar
Bm
A5 D
E/G#
G
F#
e:-----------------------------------0-------0----3-----3---2---------|
B:-3-----------7----------------------------------3-----------2-------|
G:-----4---2---7-----------------4-4---4------------4-------------3---|
D:---4-----2---7--------------------------------------5---------4-----|
A:-2-----4-0---5-4-5-4-7-5--------------------------------------------|
E:-------------------------7-0-4----------0----0--3---------2---------|
Bm
A5 D
E/G#
G
F#
e:-----------------------------------0-------0----3-----3---2-----------|
B:-3---3-------7---7---------------0--------------3-----------2---------|
G:---------2---7---7-------------4-----4------------4-------------3-----|
D:-4---4---2---7---7----------------------------------5---------4-------|
A:-2---2-4-0---5---5-4-7-5----------------------------------------------|
E:-------------------------7-0-4----------0----0--3---------2-----------|
Bm
A5 D
E/G#
e:-----------------------------------0--------0-----------------------|
B:-3---3-------7---7---------------0----------------------------------|
G:---------2---7---7-------------4-----4------------------------------|
D:-4---4---2---7---7--------------------------------------------------|
A:-2---2-4-0---------4-7-5--------------------------------------------|
E:-------------------------7-0-4----------0------0--------------------|
D/F# Em/G D/A F#m/A A/E
e:---------------------5-----------5----------------------------------|
B:-3---3-5---5-7---7---5---------5------------------------------------|
G:---2---4-4---7---6---6-------6--------------------------------------|
D:---------------------7-----7----------------------------------------|
A:---------------------7----------------------------------------------|
E:-2-----3-----5---5--------------------------------------------------|
(keyboard and xylophone?/glockenspiel?/chimes? enter)
Em
Bm
C
G
F#
e:-------0------------------2----------------0-----3----3---3----2--------|
B:-0-------0---0-----3--------3---3----1-------1--------------------2-----|
G:-----0-----0------------4-----4------0---0-----0---0----4---4---------3-|
D:---2-----------2---4--4-----------4----2----------------------------4---|
A:-2-------------2---2--------------2--3-------------3--------------------|
E:------------------------------------------------------3--------2--------|
Em
Bm
C
G
F#
e:-0-----0-0----------------2----------------0----------3-----3---2-------|

B:-------------0-----3--------3---3----1-------1---1----------------------|
G:-----0-----0------------4-----4------0---0-----0--------4---------------|
D:---2-----------2---4--4-----------4----2-----------2------5-------------|
A:-2-----------------2-----------------3----------------------------------|
E:------------------------------------------------------3---------2-------|
Bm
A5 D
E/G#
G
F#
e:-----------------------------------0--------------3-----3--2--------|
B:-3--3--------7-------------------0---------------------------2------|
G:---------2---7-----------------4-----4----4---------4------------3--|
D:-4--4----2---7----------------------------------------5--------4----|
A:-2--2--4-0-------5-4-7-5--------------------------------------------|
E:-------------------------7-0-4----------0----0----3--------2--------|
Bm
A5 D
e:-----------------------------------0--------------------------------|
B:-3--3--------7-------------------0----------------------------------|
G:---------2---7-----------------4-----4------4-----------------------|
D:-4--4----2---7------------------------------------------------------|
A:-2--2--4-0-------5-4-7-5--------------------------------------------|
E:-------------------------7-0-4----------0------0--------------------|
D/F# Em/G D/A F#m/A
A/E
e:-------------------|-------------------|---------------------5------|
B:-3---3-5---5-7---7-|-3---3-5---5-7---7-|-3---3-5---5-7---7---5------|
G:-2-2---4-4---7---6-|-2-2---4-4---7---6-|-2-2---4-4---7---6---6------|
D:-------------------|-------------------|---------------------7------|
A:-------------------|-------------------|---------------------7------|
E:-2-----3-----5---5-|-2-----3-----5---5-|-2-----3-----5---5----------|
(Note: in this part, the notes in ()'s are played by a second guitar which
is doubling the lead part.)
(doubled electric guitars)
A7sus4 A7 Em/G
D D/F# G
e:----0---0--0--0---------------------2---0--0---3--3--------------|
B:----3---2--2--0---------------------3---3--3---3--3--------------|
G:----0---0--0--0---------------------2---2--2---0--0--------------|
D:----2---2--2--2---------------------0---0--0---0--0-----0--2--4--|
A:----0---0--0--x-------------------------x--x---2--2--4-----------|
E:--------------3----0--2--3--2--0~-------2--2---3--3--------------|
e:----0---0--0--0-----------------2---0--0---3--3---------------|
B:----3---2--2--0-----------------3---3--3---3--3---------------|
G:----0---0--0--0-----------------2---2--2---0--0---------------|
D:----2---2--2--2----------------(0)--0--0---0--0------0--2--4--|
A:---(0)--0--0--x---------------------x--x---2--2---4-----------|
E:--------------3----0--2--3--2-------2--2---3--3---------------|
e:----0---0--0--0-----------------2---0--0---3--3------------------|
B:----3---2--2--0-----------------3---3--3---3--3------------------|
G:----0---0--0--0-----------------2---2--2---0--0------------------|
D:----2---2--2--2----------------(0)--0--0---0--0------0--2--4-----|
A:---(0)--0--0--x---------------------x--x---2--2---4-----------2~-|
E:--------------3----0--2--3--2-------2--2---3--3------------------|
[Riff 1]
A5
D5
B5
e:-----------------------------------------------------|
B:-----------------------------------------------------|
G:------2-----------------7----------------------------|
D:----2-----------------7----7~s-9--9\-----------------|

A:--0-----------------5------4~s-7--9\-----------------|
E:---------3~-2-0~------------------7\-----------------|
[Riff 2]
_________________________________________
A
F
G
|1. E
|2. E
e:-5--5--5-----------3--3--3-|----------0~-|-------0-0-0-0-0----------|
B:-5--5--5-----------3--3--3-|----------0~-|-------0-0-0-0-0----------|
G:-6--6--6--2--2--2--4--4--4-|----------1~-|-------1-1-1-1-1----------|
D:-7--7--7--3--3--3--5--5--5-|---2~--2--2~-|---2~--2-2-2-2-2----------|
A:-7--7--7--3--3--3--5--5--5-|---2~--2--2~-|---2~--2-2-2-2-2----------|
E:-5--5--5--1--1--1--3--3--3-|---0~--0--0~-|---0~--0-0-0-0-0----------|
[Riff 3]
F#m G
A
e:---2---3---2---3------------5~-------5~---------|
B:---2---3---2---3------------5~-------5~---------|
G:---2---4---2---4------------6~-------6~---------|
D:---4---5---4---5---7--7---7-7~-----7-7~---------|
A:---4---5---4---5---7--7---7-7~-----7-7~---------|
E:---2---3---2---3---5--5---5-5~-----5-5~---------|
[Riff 4]
G
(A)
e:--15-15-15-15-15-15----14--15--14----------16b17~~----------|
B:--15-15-15-15-15-15----------------17--14-------------------|
G:--12-12-12-12-12-12-----------------------------------------|
D:--12-12-12-12-12-12-----------------------------------------|
A:------------------------------------------------------------|
E:------------------------------------------------------------|
[Riff 5] - an overdubbed electric plays the notes at the bottom
G
D/F#
A B
G
e:---3~-----------------------3~---------------------|
B:---3~------3~------2---4----3~---------------------|
G:---0~------2~------2---4----0~---------------------|
D:---0~------0~------2---4----0~---------------------|
A:---2~------x~------0---2----2~---------------------|
E:---3~------2~---------------3~---------------------|
|
|
e:---------------------------------------------------|
B:--15~~---------------------------------------------|
G:-----------14~~------------------------------------|
D:---------------------------------------------------|
A:---------------------------------------------------|
E:---------------------------------------------------|
[Riff 6]
G
(played over A
B B
G G pattern in last verse)
e:-15-15-15-15-15-15--14--15--14-------14-14~~-----------------|
B:-15-15-15-15-15-15--------------17~----------15-15~~~--------|
G:-12-12-12-12-12-12-------------------------------------------|
D:-12-12-12-12-12-12-------------------------------------------|
A:-------------------------------------------------------------|
E:-------------------------------------------------------------|
Song Progression:
[Intro] x1
[Riff 1] x2

With [Riff 2] x1:


When they turn the pages of history, when these days have passed long ago,
Will they read of us with sadness for the seeds that we let grow?
With [Riff 3] x2:
We turned our gaze from the castles in the distance,
Eyes cast down on the path of least resistance.
With [Riff 4] x3:
Cities full of hatred, fear and lies.
Withered hearts and cruel tormented eyes.
Scheming demons dressed in kingly guise.
With [Riff 5] x1:
Beating down the multitude and scoffing at the wise.
[Riff 1] x2
With [Riff 2] x1:
The hypocrites are slandering the sacred halls of Truth.
Ancient nobles showering their bitterness on youth.
With [Riff 3] x2:
Can't we find the minds that made us strong?
Can't we learn to feel what's right and what's wrong? What's wrong?
[Guitar Solo and middle section] all skipped here - sorry (someday...)
I did manage to tab out the section from 3:51 on. The chords in
()'s are played by the first guitar, while another breaks off to finish the
solo.
A
e:--5-5-5--5--5-5-5--5-5-5--5--5-5-5--5-5-5--5--5-5-5--5-5-5--5--5-5-5-|
B:--5-5-5--5--5-5-5--5-5-5--5--5-5-5--5-5-5--5--5-5-5--5-5-5--5--5-5-5-|
G:--2-2-2--2--2-2-2--2-2-2--2--2-2-2--2-2-2--2--2-2-2--2-2-2--2--2-2-2-|
D:--2-2-2--2--2-2-2--2-2-2--2--2-2-2--2-2-2--2--2-2-2--2-2-2--2--2-2-2-|
A:--0-0-0--0--0-0-0--0-0-0--0--0-0-0--0-0-0--0--0-0-0--0-0-0--0--0-0-0-|
E:---------------------------------------------------------------------|
G
(A)
e:--5-5-5~~---3~~-------------5~~---3~~-------------------------------|
B:--5-5-5~~---3~~-------------5~~---3~~--------------10~--------------|
G:--2-2-2~~---0~~---------2p0-2~~---0~~---------2p0--12b14~-----------|
D:--2-2-2~~---0~~-------0-----2~~---0~~-------0-------------?---------|
A:--0-0-0~~---2~~-------------0~~---2~~---------------------0*--------|
E:------------3~~---0h3-------------3~~---0h3-------------------------|
(G)
(A)
e:-------------------------------------------------------------------|
B:-------------------------------------------------------------------|
G:-16b18r16--16b18r16--16-16~-------14--16-14-16-16b18r16p14-16-16---|
D:----------------------------14h16----------------------------------|
A:-------------------------------------------------------------------|
E:-------------------------------------------------------------------|

(G)
e:-------------------------------------------------------------------|
B:-------------------------------------------------------------------|
G:-14~~~~---12b14-12-11-12-11----12p11-------------------------------|
D:----------------------------14-------12~~~-------------------------|
A:-------------------------------------------------------------------|
E:-------------------------------------------------------------------|
With [Riff 4] x3:
Cities full of hatred, fear and lies.
Withered hearts and cruel tormented eyes.
Scheming demons dressed in kingly guise.
With [Riff 5] x1:
Beating down the multitude and scoffing at the wise.
With [Riff 4] x1:
Can't we raise our eyes and make a start?
With [Riff 6] x1:
Can't we find the minds to lead us closer to the heart?
(Note: as above, the notes in ()'s are played by a second guitar which is
doubling the lead part.)
D D/F#
G
A7sus4 A7 Em/G
e:-----------|-2---0--0---3--3-|----------------0---0--0--0---------------|
B:-----------|-3---3--3---3--3-|----------------3---2--2--0---------------|
G:-----------|-2---2--2---0--0-|----------------0---0--0--0---------------|
D:-----------|-0---0--0---0--0-|----0--2--4-----2---2--2--2---------------|
A:-----------|-----x--x---2--2-|-4-----------2~-0---0--0--x---------------|
E:-0-2-3-2-0-|-----2--2---3--3-|--------------------------3----0--2-3-2---|
e:--2---0--0---3--3-|-------------0---0--0--0----------------|
B:--3---3--3---3--3-|-------------3---2--2--0----------------|
G:--2---2--2---0--0-|-------------0---0--0--0----------------|
D:-(0)--0--0---0--0-|---0--2--4---2---2--2--2----------------|
A:------x--x---2--2-|-4----------(0)--0--0--x----------------|
E:------2--2---3--3-|-----------------------3----0--2-3-2----|
(switch to acoustic)
D D/F#
G
Bm
e:--2---0--0---3--3~-------------------------2~----------------------|
B:--3---3--3---3--3~-------------------------3~----------------------|
G:--2---2--2---0--0~-------------------------4~----------------------|
D:-(0)--0--0---0--0~-------------------------4~----------------------|
A:------x--x---2--2~---4--5--5s7--5--4--0----2~----------------------|
E:------2--2---3--3~-----------------------0-------------------------|

Xanadu:

[0:00]

e:--------|-------------|-----------------|--------------------------|
B:--------|--5----------|-[5]-------------|--------------------------|
G:--------|----4--------|----[4]----------|o------------------------o|
D:--------|------2------|--------[2]------|o---2~-------------------o|
A:--------|-------------|-----------------|----------4~-----2~-------|
E:-0------|--------0----|------------[0]--|-------0------0-----------|
[0:31]
e:-<12>-------<7>----------------------------------------------------|
B:------<12>---------------------------------------------------------|
G:-------------------------------------------------------------------|
D:-------------------------------------------------------------------|
A:----------------------<7>-----------<5>------<7>----------<12>-----|
E:-----------------<7>-------<7>--<4>-----<5>------<7>-<4>-----------|
[0:38]
e:-<12>-------<9>------------------<5>-------------------------------|
B:------<12>------<9>------------------<5>---------------------------|
G:--------------------<9>-----<9>---------------------<5>------------|
D:------------------------<9>--------------------<5>-----------<7>---|
A:-------------------------------------------<5>-----------<7>-------|
E:-------------------------------------------------------------------|
[0:46]
e:-12~--0--7--9~---0-4-5--0-|--12~--0-7-9--0---------------7---------|
B:--------------------------|----------------9--10----7--9---10-9~---|
G:o------------------------o|----------------------9-----------------|
D:o------------------------o|----------------------------------------|
A:--------------------------|----------------------------------------|
E:--------------------------|----------------------------------------|
[1:01]
e:--16--12-14------|---16--12-14-------------------------------------|
B:------------12~--|-------------12--16-14----------12-14~-----------|
G:o---------------o|------------------------13-14~----------13-14~---|
D:o---------------o|-------------------------------------------------|
A:-----------------|-------------------------------------------------|
E:-----------------|-------------------------------------------------|
[1:16]
e:-----------|----------------------------------------------------12-|
B:-----------|---10--9----------10~-9~-------------------------12----|
G:-----------|---------9--7~-----------9--7~-----11--9----9-11-------|
D:-14--12~---|--------------------------------9--------9-------------|
A:-----------|-------------------------------------------------------|
E:-----------|-------------------------------------------------------|
[1:30]
e:---------------------12-----------|--------------------------------|
B:-12---------------12----12--------|--------------------------------|
G:----11--9---9--11----------11--9--|--------------------------------|
D:----------9-----------------------|----9-11----9----7---7----------|
A:----------------------------------|-11-------7---9--5---4---7---7--|
E:----------------------------------|-------------------------5---4--|
[1:37]
[1:41]
e:---------------<5>--0----|-----------------------------------------|
B:-<12>-<12>-<7>-----------|-----------------------------------------|
G:-------------------------|-----------------------------------------|
D:-------------------------|-----------------------------------------|

A:-------------------------|-------<7>------------<7>----------------|
E:-------------------------|--<12>-----<7>--<9>-------<7>--0---------|
[1:49]
e:--------11---------12--|
B:--10-12----9--10-------|
G:o----------------9----o|
D:o---------------------o|
A:-----------------------|
E:-----------------------| repeat until free time ends at 2:03
Riff A1 (7/8 time)
24x
e e e e e e e
e:------12----------11-----------------------------------------------|
B:----------10--12------9---10---------------------------------------|
G:o-9---------------------------------------------------------------o|
D:o-----------------------------------------------------------------o|
A:-------------------------------------------------------------------|
E:-------------------------------------------------------------------|
Riff A2 (7/8 time) (with riff A1)
h+ Q+
h+ Q
h+ Q+
h+ Q
h+ Q+
h+ Q
e:---------|---------|---------|---------|--------|------------------|
B:---------|---------|---------|---------|--------|------------------|
G:o--------|---------|--5--(5)-|-(5)-(5)-|--------|------------------|
D:o-2--(2)-|-(2)-(2)-|--5--(5)-|-(5)-(5)-|--5-(5)-|-(5)-(5)----------|
A:--2--(2)-|-(2)-(2)-|--3--(3)-|-(3)-(3)-|--5-(5)-|-(5)-(5)----------|
E:--0--(0)-|-(0)-(0)-|---------|---------|--3-(3)-|-(3)-(3)----------|
3x (4/4 time)
(5/4 time)
(4/4 time)
h+ Q+
h+ Q
w+
w+
w+
w+q+
h+ Q e+
e:---------|----------|-----|------|------|-------------|------------|
B:---------|----------|-----|------|------|-------------|------------|
G:--2--(2)-|-(2)-(2)-o|-----|------|------|-------------|------------|
D:--2--(2)-|-(2)-(2)-o|--2--|-(2)--|-(2)--|-(2)---------|-(2)-(2)----|
A:--0--(0)-|-(0)-(0)--|--2--|-(2)--|-(2)--|-(2)---------|-(2)-(2)----|
E:---------|----------|--0--|-(0)--|-(0)--|-(0)---------|-(0)-(0)-0--|
Riff B (4/4 time)
e e h+ e e+
e e h+ e e+
e:-----------0---(0)-----|-----------0---(0)------------|
B:-----------0---(0)-----|-----------0---(0)------------|
G:-----------4---(4)-----|-----------4---(4)------------|
D:-----------2---(2)-----|-----------2---(2)------------|
A:-----------2---(2)-----|-----------2---(2)------------|
E:---(0)--0--0---(0)--0--|---(0)--0--0---(0)--0---------|
e e h+ (e) e+
e:-----------0---(0)-----|
B:-----------0---(0)-----|
G:-----------4---(4)-----|
D:-----------2---(2)-----|
A:-----------2---(2)--5--|
E:---(0)--0--0---(0)-----|
Riff C1 (4/4 time)

e e e e e e e e
e e e e e e e e+
e:--------------------------|----------------------------------------|
B:--------------------------|----------------------------------------|
G:--------------------------|----------------------------------------|
D:--------------------------|----------------------------------------|
A:-(5)-4-------/9--7--5--4--|--5--4----------------------------------|
E:--------7--5--------------|--------7--5-/9--7--5--0----------------|
Riff C2 (4/4 time)
e e e e e e e e
e e e e e e e e
e:--------------------------|----------------------------------------|
B:--------------------------|----------------------------------------|
G:--------------------------|----------------------------------------|
D:--------------------------|----------------------------------------|
A:-(5)-4-------/9--7--5--4--|--7--5--4-----5--4----------------------|
E:--------7--5--------------|-----------7--------7--5----------------|
e e e e e e e e
e e e e e e e e
w+
w
e:--------------------------|--------------------------|--0---|-(0)--|
B:--------------------------|--------------------------|--0---|-(0)--|
G:--------------------------|--------------------------|--4---|-(4)--|
D:--------------------------|--------------------------|--2---|-(2)--|
A:--------------------------|-----------------------2--|--2---|-(2)--|
E:-/9--7--5--4--7--5--4--2--|--5--4--2--0--4--2--0-----|--0---|-(0)--|
Riff D1 (7/8 time)
e e e e e s s s s
e e e e e q
e:--0-----0-----0--0--0--0--0--|--0-----0-----0--0-------------------|
B:--12----12----12-12-12-12-12-|--12----12----12-12s10---------------|
G:--13----13----13-13-13-13-13-|--13----13----13-13s11---------------|
D:--14----14----14-14-14-14-14-|--14----14----14-14s12---------------|
A:--14----14----14-14-14-14-14-|--14----14----14-14s12---------------|
E:--0-----0-----0--0--0--0--0--|--0-----0-----0--0-------------------|
e e e e e s s s s
e e e e e q
e:--0-----0-----0--0--0--0--0--|--0-----0-----0--0-------------------|
B:--10----10----10-10-10-10-10-|--10----10----10-10s7----------------|
G:--11----11----11-11-11-11-11-|--11----11----11-11s8----------------|
D:--12----12----12-12-12-12-12-|--12----12----12-12s9----------------|
A:--12----12----12-12-12-12-12-|--12----12----12-12s9----------------|
E:--0-----0-----0--0--0--0--0--|--0-----0-----0--0-------------------|
e e e e e s s s s
e e e e e q
e:--0-----0-----0--0--0--0--0--|--0-----0-----0--0-------------------|
B:--7-----7-----7--7--7--7--7--|--7-----7-----7--7s5-----------------|
G:--8-----8-----8--8--8--8--8--|--8-----8-----8--8s6-----------------|
D:--9-----9-----9--9--9--9--8--|--9-----9-----9--9s7-----------------|
A:--9-----9-----9--9--9--9--9--|--9-----9-----9--9s7-----------------|
E:--0-----0-----0--0--0--0--0--|--0-----0-----0--0-------------------|
e e e e e s s s s
e e e e e e e
e:--0-----0-----0--0--0--0--0--|--0-----0-----0--0-------------------|
B:--5-----5-----5--5--5--5--5--|--3-----3-----3--3-------------------|
G:--6-----6-----6--6--6--6--6--|--4-----4-----4--4-------------------|
D:--7-----7-----7--7--7--7--7--|--5-----5-----5--5-------------------|
A:--7-----7-----7--7--7--7--7--|--5-----5-----5--5-------------------|
E:--0-----0-----0--0--0--0--0--|--0-----0-----0--0-------------------|

Keyboard (arranged for guitar) played over above riff


e:-------------------------------------------------------------------|
B:-5s12~-----------------------------5s12~-------12--10-9-10-9--10---|
G:-------------9~--------7~------------------------------------------|
D:-------------------------------------------------------------------|
A:-------------------------------------------------------------------|
E:-------------------------------------------------------------------|
e:-------------------------------------------------------------------|
B:-12~----12--10-9-10-9--10--12~--10-9-------------------------------|
G:------------------------------------9~------9--9--9-9-9--7--7--7--7|
D:-------------------------------------------------------------------|
A:-------------------------------------------------------------------|
E:-------------------------------------------------------------------|
e:----------|
B:--5~------|
G:----------|
D:----------|
A:----------|
E:----------|
Riff D2 (7/8 time)
e e e e e s s s s
e e e e e q
e:--0-----0-----0--0--0--0--0--|--0-----0-----0--0-------------------|
B:--12----12----12-12-12-12-12-|--12----12----12-12s10---------------|
G:--13----13----13-13-13-13-13-|--13----13----13-13s11---------------|
D:--14----14----14-14-14-14-14-|--14----14----14-14s12---------------|
A:--14----14----14-14-14-14-14-|--14----14----14-14s12---------------|
E:--0-----0-----0--0--0--0--0--|--0-----0-----0--0-------------------|
e e e e e s s s s
e e e e e q
e:--0-----0-----0--0--0--0--0--|--0-----0-----0--0-------------------|
B:--10----10----10-10-10-10-10-|--10----10----10-10s7----------------|
G:--11----11----11-11-11-11-11-|--11----11----11-11s8----------------|
D:--12----12----12-12-12-12-12-|--12----12----12-12s9----------------|
A:--12----12----12-12-12-12-12-|--12----12----12-12s9----------------|
E:--0-----0-----0--0--0--0--0--|--0-----0-----0--0-------------------|
e e e e e s s s s
e e e e e q
e:--0-----0-----0--0--0--0--0--|--0-----0-----0--0-------------------|
B:--7-----7-----7--7--7--7--7--|--7-----7-----7--7s5-----------------|
G:--8-----8-----8--8--8--8--8--|--8-----8-----8--8s6-----------------|
D:--9-----9-----9--9--9--9--8--|--9-----9-----9--9s7-----------------|
A:--9-----9-----9--9--9--9--9--|--9-----9-----9--9s7-----------------|
E:--0-----0-----0--0--0--0--0--|--0-----0-----0--0-------------------|
q e e e e e
e e e e e e e
e:--0--------0--------|-----------0----------------------------------|
B:--0-----0-----0-----|--------0-----------0-------------------------|
G:--6--6-----------6--|-----4-----------3----------------------------|
D:--7-----------------|--5-----------4-------------------------------|
A:--7-----------------|--5-----------4-------------------------------|
E:--5-----------------|--3-----------2-------------------------------|
Riff E

e:----0-----------0------0--0--0--------0-----------0------0--0--0---|
B:------0-----------0----0--0--0----------0-----------0----0--0--0---|
G:--------1-----------1--4--3--6------------1-----------1--4--3--8---|
D:--2-----------2--------5--4--7------2-----------2--------5--4--9---|
A:--2---------2----------5--4--7----2-----------2----------5--4--9---|
E:--0-------0------------3--2--5--0-----------0------------3--2--7---|
Riff F (Coleridge verse)
e:---0--0--0-----------0------|---0--0--0-----------0----------------|
B:---0-----0--------0-----0---|---0-----0--------0-----0-------------|
G:o--1-----3-----3-----------o|o--8-----6-----6---------------------o|
D:o--2-----4--4--------------o|o--9-----7--7------------------------o|
A:---2-----4------------------|---9-----7----------------------------|
E:---0-----2------------------|---7-----5----------------------------|
Riff G
e:--2--0--3--1-------------------------------------------------------|
B:--3--1--3--1-------------------------------------------------------|
G:--2--2--4--2-------------------------------------------------------|
D:--0--2--5--3--2-2-2-2---2--2-2-------------------------------------|
A:-----0--5--3--2-2-2-2---2--2-2-------------------------------------|
E:--------3--1--0-0-0-0---0--0-0-------------------------------------|
Riff H (verses 1 and 3)
e:-------------------------------------------------------------------|
B:-------------------------------------------------------------------|
G:---------------2-2-2-2---------4--2-----2------4--2-----2----------|
D:--2-2-2-2---5--2-2-2-2---5--2--4--2--5--2---2--4--2--5--2----------|
A:--2-2-2-2---5--0-0-0-0---5--2--2--0--5--0---2--2--0--5--0----------|
E:--0-0-0-0---3------------3--0--------3------0--------3-------------|
e:----------------------------0--------------------------------------|
B:----------------------------0--------------------------------------|
G:---------------2-2-2-2------4--------------------------------------|
D:--2-2-2-2---5--2-2-2-2---5--2--------------------------------------|
A:--2-2-2-2---5--0-0-0-0---5--2--------------------------------------|
E:--0-0-0-0---3------------3--0--------------------------------------|
Fill 1 (verse 3)
e:--13b15~---------|
B:-----------------|
G:-----------------|
D:-----------------|
A:-----------------|
E:-----------------| uses delay of approx. 300 msec
Riff I ("Xanadu")
e:--0----3----2------------------------------------------------------|
B:--0----3----3------------------------------------------------------|
G:--1----0----2------------------------------------------------------|
D:--2----0----0------------------------------------------------------|
A:--2----2----0------------------------------------------------------|
E:--0----3----2------------------------------------------------------|
Riff J (4/4 time) (verses 2 and 4) (12-string)

e e e e e e e e
e e e e q e e
e:--------------------------|----------------------------------------|
B:--------3-----------3-----|--------3-------------------------------|
G:-----2-----0-----------0--|-----------0----------------------------|
D:--0--------------3--------|-----2----------------------------------|
A:--------------1-----------|--3-------------------------------------|
E:--------------------------|--------------3--2--0-------------------|
|
|
| (accompaniment if no 12-string available)
|
| e e e e e e e e
e e e e q e e
|
e:--------------------------|-----0----------------------------------|
B:--3-----3-----------3-----|--1-----3-------------------------------|
G:-----2-----0--3--------0--|-----------0----------------------------|
D:-----------------3--------|--------------5--4--2-------------------|
A:--------------------------|----------------------------------------|
E:--------------------------|----------------------------------------|
Keyboard (arranged for guitar) played over above riff
e:--------19-----17~-------------------------------------------------|
B:--19-20----20-------20-19-17~--------------------------------------|
G:-------------------------------19-18-16~--18-19--14~------17~--16--|
D:-----------------------------------------------------15~-----------|
A:-------------------------------------------------------------------|
E:-------------------------------------------------------------------|
e:-------------------------------------------------------------------|
B:-------------------------------------------------------------------|
G:--14---------------------------------------------------------------|
D:-----17--12~--p0h12~-p0h12p0h12~-----------------------------------|
A:-------------------------------------------------------------------|
E:-------------------------------------------------------------------|
Riff K
e:--2----2----2------------------------------------------------------|
B:--3----3----3------------------------------------------------------|
G:--2----2----2------------------------------------------------------|
D:--0----0----0------------------------------------------------------|
A:--0----0----0------------------------------------------------------|
E:--2----2----2------------------------------------------------------|
Riff L (4/4 time) (12-string)
e e e e e e e e
e e e e e e e e
e:--------------------------|----------------------------------------|
B:--------3-----------3-----|--------3-------------------------------|
G:-----2-----0-----------0--|-----------0----------------------------|
D:--0--------------3--------|-----2----------------------------------|
A:--------------1-----------|--3-------------------------------------|
E:--------------------------|--------------3--3--2--0----------------|
|
|
| (accompaniment if no 12-string available)
|
| e e e e e e e e
e e e e e e e e
|
e:--------------------------|-----0----------------------------------|
B:--3-----3-----------3-----|--1-----3-------------------------------|
G:-----2-----0--3--------0--|-----------0----------------------------|
D:-----------------3--------|--------------5--5--4--2----------------|
A:--------------------------|----------------------------------------|

E:--------------------------|----------------------------------------|
Keyboard (arranged for guitar) played over riff F
e:-----12~----------------------------0~-----------------------------|
B:-------------------------------------------------------------------|
G:-------------------------------------------------------------------|
D:-------------------------------------------------------------------|
A:-------------------------------------------------------------------|
E:-------------------------------------------------------------------|
(w/ bar)
(w/ bar)
Solo (over riff F)
e:-----------------------------------------------------------------------|
B:-----------17~--19~--19b21~--21b22~------------------------------------|
G:-----------------------------------------------------------------------|
D:-----------------------------------------------------------------------|
A:-----------------------------------------------------------------------|
E:--0b2--0b2-------------------------------------------------------------|
|------- (behind the nut bend, or pull up on floating tremolo)
e:-----------------------------------------------------------------------|
B:-----------------------------------------------------------------------|
G:-------9-11b13-(13)r11~------11-11-9-11b13-(13)r11p9----9~-------------|
D:--9-11------------------9-11-------------------------11----------------|
A:-----------------------------------------------------------------------|
E:-----------------------------------------------------------------------|
e:------------------------------------------------------------------12---|
B:-----------------------------------------------------------------------|
G:--7-6-4-------------------------------11b12r11-9~--9b11--9b11r9~-------|
D:--------7-5-4-5-4------------------------------------------------------|
A:------------------7-5-4-0----------------------------------------------|
E:--------------------------2b3-(3)r2-0----------------------------------|
e:--15p12----12--15p12----12 15b17-15-15-15-15-14-12---------------------|
B:--------15-----------15----------------------------15-14-12------------|
G:------------------------------------------------------------14-13-12---|
D:-----------------------------------------------------------------------|
A:-----------------------------------------------------------------------|
E:-----------------------------------------------------------------------|
e:------------------------------------------------------12-15------------|
B:---------------------------------------------12h15----------15---------|
G:------------------------------------12h14----------14------------------|
D:--14-13-12--------------------12h14-------14---------------------------|
A:-----------14-13-12-----12h14------------------------------------------|
E:--------------------15-------------------------------------------------|
e:--12-15-----------------------------17b19-(19)r17-17-15s14-------------|
B:--------15-17b19--17b19-17-17b19r17------------------------17-15~-\----|
G:-----------------------------------------------------------------------|
D:-----------------------------------------------------------------------|
A:-----------------------------------------------------------------------|
E:-----------------------------------------------------------------------|
e:------2-------------0-------------3----------------1---------|
B:--------3-------------1-------------3------------1-----------|
G:----2--------------------------------------------------------|

D:--0---------------2------------------------------------------|
A:----------------0---------------5--------------3-------------|
E:------------------------------3--------------1---------------|
Riff M (played over riff A1)
e:--0----0--0----0----0--0----0--------------------------------------|
B:--0----0--0----0----0--0----0--------------------------------------|
G:--4----4--4----4----4--4----4--------------------------------------|
D:--2----2--2----2----2--2----2--------------------------------------|
A:--2----2--2----2----2--2----2--------------------------------------|
E:--0----0--0----0----0--0----0--------------------------------------|
Riff N (12-string, fades in)
e:--------------12-0------------|
B:--------------------12-0------|
G:-----------13-----------------|
D:-----14-----------------------|
A:--------14--------------------|
E:--12--------------------------|
Keyboard (arranged for guitar) played over above riff
e:--11h12-11-9-----9----------------------|
B:-------------12-------------------------|
G:o-------------------11---11h13--11--9~-o|
D:o--------------------------------------o|
A:----------------------------------------|
E:----------------------------------------|
Lead (played over riff N)
e:-----------------------------------------------------------|
B:-----------------------------------------------------------|
G:-------------10s11-9-------9-------------------------------|
D:--12-11-9------------12-11---12-11-9--12-11-9-7--11-9-7-6--|
A:----------12-----------------------------------------------|
E:-----------------------------------------------------------|
e:-----------------------------------------------------------------|
B:-----------------------------------------------------------------|
G:-----------------------------------------------------------------|
D:--9-7-6-----7-6--------6-----------------------------------------|
A:--------9-------9--7-----9--7------------------------------------|
E:------------------------------9\---------------------------------|
Conclusion
e:--0----------0------------|--0--0-0-0--0-0-0-0---------------------|
B:--0----------0------------|--0--0-0-0--0-0-0-0---------------------|
G:--4----------9------------|--9--9-9-9--9-9-9-9---------------------|
D:--2----------9------------|--9--9-9-9--9-9-9-9---------------------|
A:--2----------7------------|--7--7-7-7--7-7-7-7---------------------|
E:--0----------0------------|--0--0-0-0--0-0-0-0---------------------|
repeatedly and rapidly

Closer To The Heart:

Chord legend:
A
G
D
A5

:
:
:
:

[xx7765]
[xx5543]
[xx0232]
[x022xx]

[Intro] - played on an acoustic 12-string


A(add9)
e:-5------7-------4-------5--5-----4------------------------------|
B:---0------0-------0----------------7--5-------------------------|
G:-----6------6-------6--------6----------6-----------------------|
D:----------------------------------------------------------------|
A:----------------------------------------------------------------|
E:----------------------------------------------------------------|
Repeat 3 times:
e:---5------7------4------5------4-----------------------------------|
B:-----0------0------0------0------7--5------------------------------|
G:o-------------6------6------6---------6---------------------------o|
D:o------7----------------------------------------------------------o|
A:-------------------------------------------------------------------|
E:-------------------------------------------------------------------|
[Riff 1]
G
D(add9)
Fmaj7
e:-------0------------0------------0------------------------------|
B:-----3---3--------3---3--------1---1----------------------------|
G:---4------------2------------2---------2------------------------|
D:-5--------5s4-4--------4s3-3-----------3------------------------|
A:----------------------------------------------------------------|
E:----------------------------------------------------------------|
Asus2 Asus4 A
e:---------------------0------------------------------------------|
B:--0--3--2---2----0h2-------0--3--2------------------------------|
G:--2--2--2------------------2--2--2------------------------------|
D:--2--2--2-----2------------2--2--2------------------------------|
A:--0--0--0------------------0--0--0------------------------------|
E:----------------------------------------------------------------|
[Riff 2] - bells arr. for guitar (don't play if your drummer has these
bells!)
e:--10~------------------------10~--------------------------------|
B:-------10---8~--7---8---10--------10---8~-----------------------|
G:--11~------------------------11~--------------------------------|
D:-------11---9~--7---9---11--------11---9~-----------------------|
A:----------------------------------------------------------------|
E:----------------------------------------------------------------|
Song progression:
[Intro] x1 (repeat second measure 3 times)

[Riff 1] x1
(This part is played on a 6-string acoustic)
A
G
D
G
A
And the men who hold high places must be the ones who start
e:--------3-----------|
A
G
D
A5
G
B:------3---3---------|
to mold a new reality closer to the heart. G:----0---------------|
D:--0-----------------|
D
A5
G [arpeggate as shown:] A:--------------------|
Closer to the heart.
E:--------------------|
A
G
D
G
A
The blacksmith and the artist reflect it in their art.
A
G
D
A5
G [arpeggate as shown above]
They forge their creativity closer to the heart.
D
A5
G
Closer to the heart.
[Riff 2] x1
(Now the 6-string acoustic is joined by a 6-string electric)
A
G
D
G
A
Philosophers and plowmen each must know his part
A
A
G
G D
A
G
G
to sow a new mentality closer to the heart, yes.
D
A5
G
Closer to the heart.

G
Yeah

A5 G
oh

(Rhythm during solo is: strum D G C A at 4/4 time, changing chords each
measure)
[Guitar Solo]
e:--10b12~~-----10~~----8~----------------7---9-10--9-10-12-------|
B:--10b12~~-----10~~----8~------7--8--10------7-8-----------------|
G:----------------------9~------7--7--7---------------------------|
D:----------------------------------------------------------------|
A:----------------------------------------------------------------|
E:----------------------------------------------------------------|
e:-10-12-14--12-14-15--12-14-15--14-15-17--17b19~---17b19---------|
B:----------------------------------------------------------------|
G:----------------------------------------------------------------|
D:----------------------------------------------------------------|
A:----------------------------------------------------------------|
E:----------------------------------------------------------------|
e:-17b19---17b19r17--12-14-15---15b17---15b16---15b17~------------|
B:----------------------------------------------------------------|
G:----------------------------------------------------------------|
D:----------------------------------------------------------------|
A:----------------------------------------------------------------|
E:----------------------------------------------------------------|

e:-------------------------------------------15-14-15-14-15-14-15-14-|
B:-15b17r15--15~-15~---17b19r17--17~-17~-----15-14-15-14-15-14-15-14-|
G:-------------------------------------------------------------------|
D:-------------------------------------------------------------------|
A:-------------------------------------------------------------------|
E:-------------------------------------------------------------------|
e:-15b17~-17-17~-----------10-------------------------------------|
B:-15b17~-17-17~---10b12---10---10b12r10---7s8s7------------------|
G:------------------9b11---------9b11r9----6s7s6----9--7--9b10----|
D:--------------------------------------------------9--7--9b10----|
A:----------------------------------------------------------------|
E:----------------------------------------------------------------|
e:-------------------------------------------------------------|
B:------------------------------------------------3-3--3-3-2---|
G:--7~-----4p0---2--2--4b5--4b5~--4~---4b5r4------2-2--2-2-2---|
D:--7~-----4p0---2--2--4b5--4b5~--4~---4b5r4-------------------|
A:-------------------------------------------------------------|
E:-------------------------------------------------------------|
e:-4s5----------------------------------------------------------|
B:-4s5----------------------------------------------------------|
G:-5s6----------------------------------------------------------|
D:--------------------------------------------------------------|
A:--------------------------------------------------------------|
E:--------------------------------------------------------------|
[Intro] x1 (repeat second measure 3 times)
A5
A5
G
G
D
G
A5 A5 A5
Woah you can be the captain and I will draw the chart.
A5
A5
G G
D
A5
G G G
sailing into destiny closer to the heart.
D
A5
G G G
Closer to the heart.
D
A5
G
Well closer to the heart.
G G
Oh yeah
(Rhythm guitar plays D/A5/G pattern as above)
[bend 3/5 and strike repeatedly as below]
Closer to the heart.
[bend 3/5 etc]
Closer to the heart.
[bend 7/9 and strike repeatedly as below]
I said closer to the heart.
[bend 15/17 and strike repeatedly as below]
Well closer to the heart.

(begin fadeout)

[bend 15/17 etc]


Yeah closer to your heart.
[bend 17/20 and strike repeatedly as below]
Closer to your heart.
Whoa ...
e:--------------------------------------17b19~------------|
B:--3b5~----------7b9~-------15b17~-----20b22~------------|
G:--5b7~----------9b11~------17b19~-----------------------|
D:--------------------------------------------------------|
A:--------------------------------------------------------|
E:--------------------------------------------------------|

Cinderella Man:

Chords used:
G/D
D
G
C/G
C/D
CaddD

:
:
:
:
:
:

[xx0787]
[xx0232]
[320033]
[3x2010]
[xx0010]
[x32030]

[Riff 1]

*this part only played first time*


(is this alternate picking or a delay?)
e:---------------------|---------------------------------------------|
B:---------------------|---------------------------------------------|
G:---------------------|---------------------------------------------|
D:-----------5--4------|-----------------5-5--4-4--------------------|
A:--2--4--5--------5---|--2-2--4-4--5-5------------5-5---------------|
E:---------------------|---------------------------------------------|
[Riff 2]
A
D/A
Dsus4/A
e:-------------2~-------2~-------3~----------------------------------|
B:----2~-------3~-------3~-------3~----------------------------------|
G:----2~-------2~-------2~-------2~----------------------------------|
D:----2~-------0~-------0~-------0~----------------------------------|
A:----0~-------0~-------0~-------0~----------------------------------|
E:-------------------------------------------------------------------|
[Riff 3]
A
D
G
e:----------2~------------------3-3-----------------3-3--------------|
B:---2~-----3~------------------3-3-----------------3-3--------------|
G:---2~-----2~------------------0-0-----------------0-0--------------|
D:---2~-----0~------------------0-0-----------------0-0--------------|
A:---0~-----------4-5-4---------2-2---4-5-4---------2-2--------------|
E:----------------------5-3~----3-3---------5-3~----3-3--------------|
[Riff 4] - on acoustic guitar
____________________________________________________

A
|1. G6
D/F#
|2. G6 D/F#
e:--0--0-0-0-0-0-0-0-|----0--0-0-----------------|---0-0-0-----0-0-0----|
B:--2--2-2-2-2-2-2-2-|----3--3-3---3--3-3-3-3-3--|---3-3-3-3-3-3-3-3-3-3|
G:o-2--2-2-2-2-2-2-2-|----0--0-0---2--2-2-2-2-2-o|---0-0-0-2-2-0-0-0-2-2|
D:o-2--2-2-2-2-2-2-2-|----0--0-0---0--0-0-0-0-0-o|---0-0-0-0-0-0-0-0-0-0|
A:--0--0-0-0-0-0-0-0-|----x--x-x---x--x-x-x-x-x--|---x-x-x-x-x-x-x-x-x-x|
E:-------------------|----3--3-3---2--2-2-2-2-2--|---3-3-3-2-2-3-3-3-2-2|
[Riff 5] - Freely
D
A
Bm
E
e:--2---2-2-2-2----0------0----------2----------0--------------------|
B:--3--------------2--2-3------------3----3--3----3-2----0~----------|
G:--2--------------2-----------------4----------------4--1~----------|
D:--0--------------2-----------------4-------------------2~---2~-----|
A:-----------------0-----------------2-------------------2~---2~-----|
E:-------------------------------------------------------0~---0~-----|
Am
G
e:-------------------------------------------------------------------|
B:--1--1---1---3--1---0--------3--0--0-------------------------------|
G:--2-------------------2--0~----------------------------------------|
D:--2----------------------------------------------------------------|
A:--0----------------------------------------------------------------|
E:-------------------------------------------------------------------|
[Riff 6]
A
G
D/F#
e:----------3-3-3-3-3-3-3-3-3----------------------------------------|
B:-----2----3-3-3-3-3-3-3-3-3--3-------------------------------------|
G:-----2----0-0-0-0-0-0-0-0-0--2-------------------------------------|
D:-----2----0-0-0-0-0-0-0-0-0--0-------------------------------------|
A:-----0----2-2-2-2-2-2-2-2-2--x-------------------------------------|
E:----------3-3-3-3-3-3-3-3-3--2-------------------------------------|
[Riff 7] - Freely (that means I'm not sure exactly how it goes)
A
D
E
G
e:-------------------------------------------------------------------|
B:-----2---2--2h3---3-3--2--------7---7--7h8--8-8--7-----------------|
G:------------2-----2-2--2---------------7----7-7--7-----------------|
D:-------2----2h4---4-4--2------0---7----7h9--9-9--7-----------------|
A:---0---------------------------------------------------------------|
E:-------------------------------------------------------------------|
Progression:
[Riff 1] x1
[Riff 2] x3
[Riff 3] x1
[Riff 4] x2 /w lyrics:
A modest man from Mandrake travelled rich to the city.
He had a need to discover a use for his newly found wealth.
G/D
D D C/G C/G
C/G G G
Because he was human, because he had goodness,
G/D
D D
C/G C/G C/G G/D
Because he was moral they called him insane.
G/D
D D
C/G
C/G G G
Delusions of grandeur, visions of splendor,
G/D
D
C/G
C/G G/D

A manic depressive, he walks in the rain.


G/D D C/D D G/D D D C/D D CaddD
Eyes wide open, heart undefended...
innocence untarnished.
[Riff 5] x1 /w lyrics:
D
A Bm
E
Cinderella man
doing what you can.
Am
G
They can't understand what it means. [Riff 1] x1
[Riff 6] x1
[Riff 5] x1 /w lyrics:
D
A Bm
Cinderella man
hang on to your plans.
Am
G
Try as they might they cannot steal your dreams. [Riff 1] x1
[Riff 2] x3
[Riff 3] x1
[Riff 4] x2 /w lyrics:
In the betrayal of his love he awakened, to face a world of cold reality.
And a look in the eyes of the hungry, awakened his to what he could do.
G/D
He held up
G/D
Purposeful
G/D
They tried
G/D
This manic

D D C/G C/G
C/G
his riches to challenge the
D D
C/G C/G G/D
motion for one so insane.
D
D C/G
to fight him, just couldn't
D
C/G
C/G
depressive who walks in the

G G
hungry.
C/G G
beat him.
G/D
rain.

[Riff 7] x1
[Guitar Solo] over [Riff 7] - another solo bites the dust
[Riff 5] x1 /w lyrics:
D
A Bm
E
Cinderella man
doing what you can.
Am
G
They can't understand what it means. [Riff 1] x1
[Riff 6] x1
[Riff 5] x1 /w lyrics:
D
A Bm
Cinderella man
hang on to your plans.
Am
G
Try as they might they cannot steal your dreams. [Riff 1] x1
[Outro]:
A
G
A
e:------------------------3-3------------------|---------------------|
B:--2--2--2---------------3-3------------------|-2--2--2-------------|

G:o-2--2--2---------------0-0-----------------o|-2--2--2-------------|
D:o-2--2--2---------------0-0--------5-4------o|-2--2--2-------------|
A:--0--0--0-4-4-5-4-------2-2--2-4-5-----5-----|-0--0--0--4-4-5-4----|
E:------------------5-3~--3-3------------------|------------------5--|
sus2
G
G/D D C/D D G/D D C/D Dsus4/A D
e:------3-3----------------3-3--|---7--2--0--2--7--2-2--0---|--3---2~--|
B:------3-3----------------3-3--|---8--3--1--3--8--3-3--1---|--3---3~--|
G:------0-0----------------0-0--|o--7--2--0--2--7--2-2--0--o|--2---2~--|
D:------0-0----------------0-0--|o--0--0--0--0--0--0-0--0--o|--2---0~--|
A:------2-2--4-4-5-4-------2-2--|---------------------------|--0-------|
E:--3~--3-3----------5-3~--3-3--|---------------------------|----------|

Madrigal:

Intro: Synthesiser and Guitar. YOU figure out what effects


will make your guitar sound like the mighty Mini Moog!
|-12---------|------------|---------|-------------------|
|-----12--14-|------------|---------|-------------------|
|------------|-14--11--13-|---------|-------------------|
|------------|------------|-14------|-11----------------|
|------------|------------|---------|----14-12----------|
|------------|------------|---------|-----------14-12---|
|
|
|
|
|
|-0----------|-2----------|-0-------|-2-----------------|
|-0----------|-3----------|-0-------|-3-----------------|
|-1----------|-2----------|-1-------|-2-----------------|
|-2----------|-0----------|-2-------|-0-----------------|
|-2----------|------------|-2-------|-------------------|
|-0----------|------------|-0-------|-------------------|
|-12---------|------------|---------|-------------------|
|-----12--14-|------------|---------|-------------------|
|------------|-14--11--13-|---------|-------------------|
|------------|------------|-14------|-11----------------|
|------------|------------|---------|----14-12----------|
|------------|------------|---------|-------------------|
|
|
|
|
|
|-0----------|-2----------|-0-------|-2-----------------|
|-0----------|-3----------|-0-------|-3-----------------|
|-1----------|-2----------|-1-------|-2-----------------|
|-2----------|-0----------|-2-------|-0-----------------|
|-2----------|------------|-2-------|-------------------|
|-0----------|------------|-0-------|-------------------|
|----------------------------22^-| * See note 5 below
|--------------------------------|
|-11------14----11------14-------|
|-----14------------14-----------|
|--------------------------------|
|--------------------------------|
|
|
|--2---0---------2-2-0-----------|

|--3-------3-2-0-3------3-2-0----|
|--2-------------2---------------|
|--0-------------0---------------|
|--------------------------------|
|--------------------------------|
"When the dragons grow too mighty

To"

Figure A:
|--0-------0----0-0---|-2------2------|
|--2-------2----0-2---|-3--------3----|
|--1-------2----1-2---|-2----2-----2--|
|--2-------2----2-2---|-0--4----------|
|--2-------0----2-0---|---------------|
|--0-------0----0-0---|---------------|
"slay with pen or sword, I grow"
Repeat Figure A
"weary of the battle And the"
Repeat Figure A
"storm I walk to - ward.

When"

|-0-------0----0-0---|-4-------4------|
|-2-------2----0-2---|-5---------5----|
|-1-------2----1-2---|-6-----6-----6--|
|-2-------2----2-2---|-6---6----------|
|-2-------0----2-0---|-4--------------|
|-0-------0----0-0---|----------------|
"all a-round is mad - ness
And there's"
*
|-3----3-2---0---------|-----2-0------------------|
rd
|(0)------------3------|-----------3-2--0---------|
nds
|(0)-------------------|---2----------------------|
s
|(2)---------------2---|-0------------------------|
it
|(2)-------------------|--------------------------|
|(0)-------------------|--------------------------|
"no safe port in view

I"

|----------------------|-------2----------|
|---------2------------|-----------3------|
|------3-----3---------|-----4-------4----|
|----2----------2------|---4--------------|
|-4----------------4---|-2----------------|
|----------------------|------------------|
"long to turn my path home-ward
to stop"
*
|-3----3-2---0---------|-----2-0-----------|
|---------------3------|-----------3-2--0--|
|----------------------|---2---------------|
|------------------2---|-0-----------------|
|----------------------|-------------------|

* I don't know if this cho


is really there. It sou
something like the chime
so you may want to play
if you have no chimes.

|----------------------|-------------------|
"a while

with

you"

|----------------------|------0-----------|--(0)----------|
|---------2----------2-|-0----0-----------|--(0)----------|
|------3-------3-------|-2----1-----------|--(1)----------|
|----2------------2----|-2----2-----------|--(2)----------|
|-4--------------------|-2----2-----------|--(2)----------|
|----------------------|------------------|---------------|

Cygnus X-1 Book I: The Voyage:

Gtr
Gtr
Gtr
Gtr
Gtr

Em(type 2)
x 7 9 9 8 x

F
1 3 3 2 1 1

G
3 5 5 4 3 3

G#
4 6 6 5 4 4

Cm
x 3 5 5 4 3

Em
x 7 9 9 8 7

C#m
x 4 6 6 5 4

C5
x 3 5 5 x x

I (E A D G B E) - 'Overdriven Guitar Sound'


II (E A D G B E) - 'Distortion Guitar Sound'
III (E A D G B E) - 'Overdriven Guitar Sound #2'
IV (E A D G B E) - 'Clean Guitar Sound'
V (E A D G B E) - 'Moog Synths'

Intro
Q=198
4/4
3/4
4/4
6/4
Gtrs I, II
W
W
20x W
W
W
|----------||------------||-|--------||------------||-|------|
|----------||o----------o||-|--------||o----------o||-|------|
|----------||------------||-|--------||------------||-|------|
|----------||------------||-|--------||------------||-|------|
|----------||o----------o||-|--------||o----------o||-|------|
|----------||------------||-|--------||------------||-|------|
4/4
3/4
4/4
3/4
4/4
W
3x W
W
6x W
W
7x
||------------||-|--------||------------||-|--------||--------||
||o----------o||-|--------||o----------o||-|--------||o------o||
||------------||-|--------||------------||-|--------||--------||
||------------||-|--------||------------||-|--------||--------||
||o----------o||-|--------||o----------o||-|--------||o------o||
||------------||-|--------||------------||-|--------||--------||
Drums Enter
3/4
4/4
W
4x W
W
6x
||------------||-|--------||--------||
||o----------o||-|--------||o------o||
||------------||-|--------||--------||
||------------||-|--------||--------||
||o----------o||-|--------||o------o||

||------------||-|--------||--------||
Guitar Enters
6/4
7/4
H
a Q. E E E Q
H
a Q. E E q E +E
+E
||-----------------------|-------------------------------------|
||o----------------------|-------------------------------------|
||-----------------------|-------------------------------------|
||------------------5----|-----------------5--5-(5)b5.5==(5)r--|
||o------5s7----7-5------|------5s7----7-5---------------------|
||--0--------------------|-0-----------------------------------|
6/4
4/4
H
a Q. E E E Q
H
a Q. E E E E E E E +E
+E
4x
|----------------------|---------------|----------------------------||
|----------------------|---------------|---------------------------o||
|----------------------|---------------|----------------------------||
|-----------------5----|---------------|---5---5---5-(5)b5.5==(5)r--||
|------5s7----7-5------|------5s7----7-|-5-------------------------o||
|-0--------------------|-0-------------|----------------------------||
Q=174
A
E q q q E E q q q E
|-----------------|-----------------|
|-----------------|-----------------|
|-----------------|-----------------|
|---7---7---7---7-|---7---7---7---7-|
|-----------------|-----------------|
|-5---5---5---5---|-5---5---5---5---|
Q Q Q Q
Q Q Q Q
C
E q
q
q
E E q
q
q
E
|---------------------|---------------------|
|---------------------|---------------------|
|---------------------|---------------------|
|---10---10---10---10-|---10---10---10---10-|
|---------------------|---------------------|
|-8----8----8----8----|-8----8----8----8----|
Q
Q
Q
Q
Q
Q
Q
Q
A
E q q q E E q q q E
|--------------------|-----------------|
|--------------------|-----------------|
|--------------------|-----------------|
|------7---7---7---7-|---7---7---7---7-|
|--------------------|-----------------|
|-\(5)---5---5---5---|-5---5---5---5---|
Q
Q Q Q
Q Q Q Q
Q=218
C

G5

E E E E +E E E E E E +E E E +E Q
|-------------------|---------------------|
|-5-5---5-(5)---5-5-|---5-(5)---5-(5)-----|
|-5-5-x-5-(5)---5-5-|---5-(5)---5-(5)-----|
|-5-5-x-5-(5)---5-5-|---5-(5)---5-(5)-5/--|
|-3-3-x-3-(3)---3-3-|---3-(3)---3-(3)-5/--|
|-------------------|-----------------3/--|
Q=186
D
C#
Badd11
C
B
F#11
7/8
4/4
7/8
4/4
q S q S Q
+W
q S q S Q
+W
|-------------0--|-(0)--------|------------0--|-(0)----|
|-------------0--|-(0)--------|------------0--|-(0)----|
|-11----10----8--|-(8)--------|--9----8----3--|-(3)----|
|-12----11----9--|-(9)--------|-10----9----4--|-(4)----|
|-12----11----9--|-(9)--------|-10----9----4--|-(4)----|
|-10-----9----7--|-(7)--------|--8----7----2--|-(2)----|
D
C#
Badd1Cmaj7 Aadd9
6/4
4/4
3/4
q S q S q S q S Q
+W
+H
+Q
|-------------0-----0----0--|-(0)--------|-(0)----(0)--|
|-------------0-----0----0--|-(0)--------|-(0)----(0)--|
|-11----10----8-----9----6--|-(6)--------|-(6)----(6)--|
|-12----11----9----10----7--|-(7)--------|-(7)----(7)--|
|-12----11----9----10----7--|-(7)--------|-(7)----(7)--|
|-10-----9----7-----8----5--|-(5)--------|-(5)----(5)--|
D
C#
Badd11
C
B
F#11
7/8
4/4
7/8
q S q S Q
+W
q S q S Q
|-------------0--|-(0)--------|------------0--|
|-------------0--|-(0)--------|------------0--|
|-11----10----8--|-(8)--------|--9----8----3--|
|-12----11----9--|-(9)--------|-10----9----4--|
|-12----11----9--|-(9)--------|-10----9----4--|
|-10-----9----7--|-(7)--------|--8----7----2--|
D
C#
Badd1Cmaj7
4/4
5/4
+W
q S q S q S q S
|-(0)--------|-------------0-----0------|
|-(0)--------|-------------0-----0------|
|-(3)--------|-11----10----8-----9------|
|-(4)--------|-12----11----9----10------|
|-(4)--------|-12----11----9----10------|
|-(2)--------|-10-----9----7-----8------|
Q=122
C#m
Em
G#
5/8
S S S e S S S e S S S e E S e
|-4-4-4-4-7-7-7-7-|-4-4-4-4-------|
|-5-5-5-5-8-8-8-8-|-4-4-4-4-------|

|-6-6-6-6-9-9-9-9-|-5-5-5-5-4s5-4-|
|-6-6-6-6-9-9-9-9-|-6-6-6-6-5s6-5-|
|-4-4-4-4-7-7-7-7-|-6-6-6-6-5s6-5-|
|-----------------|-4-4-4-5-3s4-3-|
C#m
Em
5/8
6/8
S S S e S S S e W
|-4-4-4-4-7-7-7-7-|------|
|-5-5-5-5-8-8-8-8-|------|
|-6-6-6-6-9-9-9-9-|------|
|-6-6-6-6-9-9-9-9-|------|
|-4-4-4-4-7-7-7-7-|------|
|-----------------|------|
C#m
Em
G#
5/8
S S S e S S S e S S S e E S e
|-4-4-4-4-7-7-7-7-|-4-4-4-4-------|
|-5-5-5-5-8-8-8-8-|-4-4-4-4-------|
|-6-6-6-6-9-9-9-9-|-5-5-5-5-4s5-4-|
|-6-6-6-6-9-9-9-9-|-6-6-6-6-5s6-5-|
|-4-7-4-4-7-7-7-7-|-6-6-6-6-5s6-5-|
|-----------------|-4-4-4-5-3s4-3-|
Q=82
C#m
5/8

Em

4/4
Gtrs I, II, III
~
~
~~
~
S S S e S S S e Q Q Q Q
Q E. +S Q Q
|-4-4-4-4-7-7-7-7-|-------------|-----------------||
|-5-5-5-5-8-8-8-8-|-------------|-----------------||
|-6-6-6-6-9-9-9-9-|-------------|-----------------||
|-6-6-6-6-9-9-9-9-|-------------|-0--1--(1)S4--5--||
|-4-4-4-4-7-7-7-7-|-------2--3--|-----------------||
|-----------------|-3--4--------|-----------------||
E=240
Cm
Bm/FF#
11/8
Gtrs I, II
e E E e E E e E E E E
||--3------3-------3-------3--2-|
||o-4------4-------4-------4--3-|
||--5---5--5----5--5----5--5--4-|
||--5---5--5----5--5----5--5--4-|
||o-----3-(3)---3-(3)---3-(3)---|
||------------------------------|
Ebm
Dm/A
12/8
11/8
e E E e E E e E E e E E e E E e E E e E E E E 5x
|-2------2-------2-------2------|-6------6-------6-------6--5--||
|-2------2-------2-------2------|-7------7-------7-------7--6-o||

|-3---3--3----3--3----3--3----3-|-8---8--8----8--8----8--8--7--||
|-4---4--4----4--4----4--4----4-|-8---8--8----8--8----8--8--7--||
|-----4--4----4--4----4--4----4-|-----6-(6)---6-(6)---6-(6)---o||
|-----2-(2)---2-(2)---2-(2)---2-|------------------------------||
Synth Enters
Cm
Bm/F#
11/8
Gtr V
W
+Q
+E
|------------------------------------|
|------------------------------------|
|------------------------------------|
|-10-------------------(10)-----(10)-|
|------------------------------------|
|------------------------------------|
|
| Gtrs I, II
| e E E e E E e E E E
E
|--3------3-------3----------3----2--|
|--4------4-------4----------4----3--|
|--5---5--5----5--5------5---5----4--|
|--5---5--5----5--5------5---5----4--|
|------3-(3)---3-(3)-----3--(3)------|
|------------------------------------|
F#
Ebm
Dm/A
12/8
11/8
W
+Q
+E +E
W
+Q
+E
|-----------------------------------------|----------------------------------|
|-----------------------------------------|----------------------------------|
|-11-------------------(11)-----(11)-(11)-|-8-------------------(8)-----(8)--|
|-----------------------------------------|----------------------------------|
|-----------------------------------------|----------------------------------|
|-----------------------------------------|----------------------------------|
|
| e E E e E E e E E e
E
E
e E E e E E e E E E E
|--2------2-------2----------2------------|-6------6-------6---------6---5---|
|--2------2-------2----------2------------|-7------7-------7---------7---6---|
|--3---3--3----3--3------3---3---------3--|-8---8--8----8--8-----8---8---7---|
|--4---4--4----4--4------4---4---------4--|-8---8--8----8--8-----8---8---7---|
|------4--4----4--4------4---4---------4--|-----6-(6)---6-(6)----6--(6)------|
|------2-(2)---2-(2)-----2--(2)--------2--|----------------------------------|
Cm
Bm/F#
11/8
W
+Q
+E
|------------------------------------|
|-13-------------------(13)-----(13)-|
|------------------------------------|
|------------------------------------|
|------------------------------------|
|------------------------------------|
|
| e E E e E E e E E E
E
|--3------3-------3----------3----2--|
|--4------4-------4----------4----3--|

|--5---5--5----5--5------5---5----4--|
|--5---5--5----5--5------5---5----4--|
|------3-(3)---3-(3)-----3--(3)------|
|------------------------------------|
F#
Ebm
Dm/A
12/8
11/8
W
+E E E E W
+E E E
|-------------------------------------|--------------------------------|
|---------------------------11-----11-|--------------------------------|
|-11-------------------(11)-----11----|-8-------------------(8)-11--8--|
|-------------------------------------|--------------------------------|
|-------------------------------------|--------------------------------|
|-------------------------------------|--------------------------------|
|
| e E E e E E e E E e E E e E E e E E e E E E E
|--2------2-------2----------2--------|-6------6-------6---------6--5--|
|--2------2-------2----------2--------|-7------7-------7---------7--6--|
|--3---3--3----3--3------3---3------3-|-8---8--8----8--8-----8---8--7--|
|--4---4--4----4--4------4---4------4-|-8---8--8----8--8-----8---8--7--|
|------4--4----4--4------4---4------4-|-----6-(6)---6-(6)----6--(6)----|
|------2-(2)---2-(2)-----2--(2)-----2-|--------------------------------|
Cm
Bm/F#F#
11/8
W
+E E E
|----------------------------------|
|---------------------------13-----|
|----------------------------------|
|-10-------------------(10)-----10-|
|----------------------------------|
|----------------------------------|
|
| e E E e E E e E E E E
|--3------3-------3----------3---2-|
|--4------4-------4----------4---3-|
|--5---5--5----5--5------5---5---4-|
|--5---5--5----5--5------5---5---4-|
|------3-(3)---3-(3)-----3--(3)----|
|----------------------------------|
Ebm
Dm/A
12/8
11/8
H
+Q
+E E E E E E W
+E E E
|----------------------------------------|--------------------------------|
|------------------------11----11-----11-|--------------------------------|
|-11---------(11)---(11)----11-----11----|-8-------------------(8)-11--8--|
|----------------------------------------|--------------------------------|
|----------------------------------------|--------------------------------|
|----------------------------------------|--------------------------------|
|
| e E E e
E E e E E e E E e E E e E E e E E E E
|--2------2-----------2---------2--------|-6------6-------6---------6--5--|
|--2------2-----------2---------2--------|-7------7-------7---------7--6--|
|--3---3--3-------3---3------3--3------3-|-8---8--8----8--8-----8---8--7--|
|--4---4--4-------4---4------4--4------4-|-8---8--8----8--8-----8---8--7--|
|------4--4-------4---4------4--4------4-|-----6-(6)---6-(6)----6--(6)----|

|------2-(2)------2--(2)-----2-(2)-----2-|--------------------------------|
Cm
Bm/F#F#
11/8
W
+E E E
|----------------------------------|
|---------------------------13-----|
|----------------------------------|
|-10-------------------(10)-----10-|
|----------------------------------|
|----------------------------------|
|
| e E E e E E e E E E E
|--3------3-------3----------3---2-|
|--4------4-------4----------4---3-|
|--5---5--5----5--5------5---5---4-|
|--5---5--5----5--5------5---5---4-|
|------3-(3)---3-(3)-----3--(3)----|
|----------------------------------|
Ebm
Dm/A
12/8
11/8
W
+E E E E W
+E +E E
|-------------------------------------|---------------------------------|
|---------------------------11-----11-|---------------------------------|
|-11-------------------(11)-----11----|-8-------------------(8)-(8)-12--|
|-------------------------------------|---------------------------------|
|-------------------------------------|---------------------------------|
|-------------------------------------|---------------------------------|
|
| e E E e E E e E E e E E e E E e E E e E E E E
|--2------2-------2----------2--------|-6------6-------6---------6---5--|
|--2------2-------2----------2--------|-7------7-------7---------7---6--|
|--3---3--3----3--3------3---3------3-|-8---8--8----8--8-----8---8---7--|
|--4---4--4----4--4------4---4------4-|-8---8--8----8--8-----8---8---7--|
|------4--4----4--4------4---4------4-|-----6-(6)---6-(6)----6--(6)-----|
|------2-(2)---2-(2)-----2--(2)-----2-|---------------------------------|
Cm
11/8

Bm/F#F#
12/8

>
H
+Q
+E E E E E
W
+H
|-------------------------------------|-----------------------------------|
|------------------------13----13-----|-----------------------------------|
|-------------------------------------|-11-------------------(11)---------|
|-10---------(10)---(10)----10-----10-|-----------------------------------|
|-------------------------------------|-----------------------------------|
|-------------------------------------|-----------------------------------|
|
| e E E e
E E e E E E E
e E E e E E e E E e E E
|--3------3-----------3---------3---2-|--2------2-------2----------2------|
|--4------4-----------4---------4---3-|--2------2-------2----------2------|
|--5---5--5-------5---5------5--5---4-|--3---3--3----3--3------3---3----3-|
|--5---5--5-------5---5------5--5---4-|--4---4--4----4--4------4---4----4-|
|------3-(3)------3--(3)-----3-(3)----|------4--4----4--4------4---4----4-|
|-------------------------------------|------2-(2)---2-(2)-----2--(2)---2-|

+W
+H
W
|-------------------------------------|---------------|
|-------------------------------------|---------------|
|-(11)-------------------(11)---------|---------------|
|-------------------------------------|---------------|
|-------------------------------------|---------------|
|-------------------------------------|---------------|
|
| e E E e E E e E E e E E
e E Q W
|---2-------2-------2----------2------|--2------------|
|---2-------2-------2----------2------|--2------------|
|---3----3--3----3--3------3---3----3-|--3------------|
|---4----4--4----4--4------4---4----4-|--4------------|
|---4----4--4----4--4------4---4----4-|--4------------|
|--(2)---2-(2)---2-(2)-----2--(2)---2-|-(2)-----------|
Verse
E=200
4/4
W
W
W
||-----------|-----------||-|------||
||o----------|----------o||-|------||
||-----------|-----------||-|------||
||-----------|-----------||-|------||
||o----------|----------o||-|------||
||-----------|-----------||-|------||
Q=218
A
C
G5
Gtrs I, II
W
+W
E E +E E +E +E E S S +E E +E +E E +E E +E
|----------|------------|-------------------------|---------------------------|
|-5--------|-(5)--------|-5-5-(5)-5-(5)-(5)-5-5-5-|-(5)-5-(5)-(5)-5-(5)-------|
|-6--------|-(6)--------|-5-5-(5)-5-(5)-(5)-5-5-5-|-(5)-5-(5)-(5)-5-(5)-------|
|-7--------|-(7)--------|-5-5-(5)-5-(5)-(5)-5-5-5-|-(5)-5-(5)-(5)-5-(5)-5-(5)-|
|-7--------|-(7)--------|-3-3-(3)-3-(3)-(3)-3-3-3-|-(3)-3-(3)-(3)-3-(3)-5-(5)-|
|-5--------|-(5)--------|-------------------------|---------------------3-(3)-|
A
C
G5
W
+W
E S S +E E +E +E E E +E E +E +E E +E E +E
|----------|------------|-------------------------|---------------------------|
|-5--------|-(5)--------|-5-5-5-(5)-5-(5)-(5)-5-5-|-(5)-5-(5)-(5)-5-(5)-------|
|-6--------|-(6)--------|-5-5-5-(5)-5-(5)-(5)-5-5-|-(5)-5-(5)-(5)-5-(5)-------|
|-7--------|-(7)--------|-5-5-5-(5)-5-(5)-(5)-5-5-|-(5)-5-(5)-(5)-5-(5)-5-(5)-|
|-7--------|-(7)--------|-3-3-3-(3)-3-(3)-(3)-3-3-|-(3)-3-(3)-(3)-3-(3)-5-(5)-|
|-5--------|-(5)--------|-------------------------|---------------------3-(3)-|
Q=186
D
C#
B
C
B
F#11
7/8
4/4
7/8
4/4
q S q S Q
+E E E E Q Q
q S q S Q
+E E E E Q Q
|----------------|-----------0-----|---------------|-----------0------|
|----------------|---------0----0--|---------------|---------0----0---|
|-11----10----8--|-(8)---8---------|--9----8----3--|-(3)---3----------|
|-12----11----9--|-(9)-9-----------|-10----9----4--|-(4)-4------------|

|-12----11----9--|-(9)-------------|-10----9----4--|-(4)--------------|
|-10-----9----7--|-(7)-------------|--8----7----2--|-(2)--------------|
D
C#
B
C
Aadd9
6/4
4/4
3/4
q S q S q S q S Q
+W
+H.
|------------------------0--|-(0)--------|-(0)----|
|------------------------0--|-(0)--------|-(0)----|
|-11----10----8-----9----6--|-(6)--------|-(6)----|
|-12----11----9----10----7--|-(7)--------|-(7)----|
|-12----11----9----10----7--|-(7)--------|-(7)----|
|-10-----9----7-----8----5--|-(5)--------|-(5)----|
D
C#
B
C
B
F#11
7/8
4/4
7/8
4/4
q S q S Q
+E E E E Q Q
q S q S Q
+E E E E Q Q
|----------------|-----------0-----|---------------|-----------0------|
|----------------|---------0----0--|---------------|---------0----0---|
|-11----10----8--|-(8)---8---------|--9----8----3--|-(3)---3----------|
|-12----11----9--|-(9)-9-----------|-10----9----4--|-(4)-4------------|
|-12----11----9--|-(9)-------------|-10----9----4--|-(4)--------------|
|-10-----9----7--|-(7)-------------|--8----7----2--|-(2)--------------|
D
C#
B
C
Aadd9
G
6/4
4/4
q S q S q S q S Q
+W
+H.
+E E
|------------------------0--|-(0)--------|-(0)------(0)-3-|
|------------------------0--|-(0)--------|-(0)------(0)-3-|
|-11----10----8-----9----6--|-(6)--------|-(6)------(6)-4-|
|-12----11----9----10----7--|-(7)--------|-(7)------(7)-5-|
|-12----11----9----10----7--|-(7)--------|-(7)------(7)-5-|
|-10-----9----7-----8----5--|-(5)--------|-(5)------(5)-3-|
G

C
>
W
+W
+W
+H.
+E S S
|-3--------|-(3)--------|-(3)--------|-(3)------(3)-0-0-||
|-3--------|-(3)--------|-(3)--------|-(3)------(3)-1-1-||
|-4--------|-(4)--------|-(4)--------|-(4)------(4)-0-0-||
|-5--------|-(5)--------|-(5)--------|-(5)------(5)-2-2-||
|-5--------|-(5)--------|-(5)--------|-(5)------(5)-3-3-||
|-3--------|-(3)--------|-(3)--------|-(3)------(3)-x-x-||
Verse
Q=152
C
F
D
G
W
W
W
W
|-0--------|-1--------|-2--------|-3----|
|-1--------|-1--------|-3--------|-3----|
|-0--------|-2--------|-2--------|-0----|
|-2--------|-3--------|-0--------|-0----|
|-3--------|-3--------|----------|-2----|
|-x--------|-1--------|----------|-3----|

C
F
Gtrs I, II
W
W
|-0----------------------|-1-----------------------|
|-1----------------------|-1-----------------------|
|-0----------------------|-2-----------------------|
|-2----------------------|-3-----------------------|
|-3----------------------|-3-----------------------|
|-x----------------------|-1-----------------------|
|
| Gtrs I, II, III
| H
+Q +E +E
H
+Q +E +E
|------------------------|-------------------------|
|-5--------(5)--(5)-(5)--|-6---------(6)--(6)-(6)--|
|-7pb9=====(7)--(7)-(7)r-|-8pb10=====(8)--(8)-(8)r-|
|------------------------|-------------------------|
|------------------------|-------------------------|
|------------------------|-------------------------|
D
G
W
W
|-2----------------------|--3------------------------------------------|
|-3----------------------|--3------------------------------------------|
|-2----------------------|--0------------------------------------------|
|-0----------------------|--0------------------------------------------|
|------------------------|--2------------------------------------------|
|------------------------|--3------------------------------------------|
|
| H
+Q +E +E
E
+E
+E
+E
+E
E E E
|------------------------|---------------------------------------------|
|-3--------(3)--(3)-(3)--|-10------(10)--(10)----(10)----(10)----------|
|-5pb7=====(5)--(5)-(5)r-|-12pb14==(12)r-(12)b14r(12)b14r(12)b14r======|
|------------------------|---------------------------------------------|
|------------------------|-----------------------------------------0-2-|
|------------------------|---------------------------------------3-----|
C
F
D
G
Q. Q E E E Q. Q E E E Q. Q E E E Q. Q E E E
|-0----0--------|-1----1--------|-2----2--------|-3----3--------|
|-1----1--------|-1----1--------|-3----3--------|-3----3--------|
|-0----0--------|-2----2--------|-2----2--------|-0----0--------|
|-2----2--------|-3----3--3-2---|-0----0--0-----|-0----0--------|
|-3----3--3-2-0-|-3----3------3-|-----------2---|-2----2----0-2-|
|-x----x--------|-1----1--------|-------------3-|-3----3--3-----|
|
| Q. Q E E E Q. Q E E E Q. Q E E E Q. Q E E E
|-0----0--------|-1----1--------|-2----2--------|-3----3--------|
|-1----1--------|-1----1--------|-3----3--------|-3----3--------|
|-0----0--------|-2----2--------|-2----2--------|-0----0--------|
|-2----2--------|-3----3--3-2---|-0----0--0-----|-0----0--------|
|-3----3--3-2-0-|-3----3------3-|-----------2---|-2----2----0-2-|
|-x----x--------|-1----1--------|-------------3-|-3----3--3-----|
C
F
D
G
Q. Q E E E Q. Q E E E Q. Q E E E Q. Q
E E E
|-0----0--------|-1----1--------|-2----2--------|-3----3---------------|
|-1----1--------|-1----1--------|-3----3--------|-3----3---------------|

|-0----0--------|-2----2--------|-2----2--------|-0----0---------------|
|-2----2--------|-3----3--3-2---|-0----0--0-----|-0----0---------------|
|-3----3--3-2-0-|-3----3------3-|-----------2---|-2----2--------0--2---|
|-x----x--------|-1----1--------|-------------3-|-3----3------3--------|
|
| Q. Q E E E Q. Q E E E Q. Q E E E Q. Q
Q +E
|-0----0--------|-1----1--------|-2----2--------|----------------------|
|-1----1--------|-1----1--------|-3----3--------|------3------3---(3)--|
|-0----0--------|-2----2--------|-2----2--------|------5pb7===5---(5)r-|
|-2----2--------|-3----3--3-2---|-0----0--0-----|----------------------|
|-3----3--3-2-0-|-3----3------3-|-----------2---|----------------------|
|-x----x--------|-1----1--------|-------------3-|----------------------|
C
F
D
G
Q. Q E E E Q. Q E E E Q. Q E E E Q.
Q
Q
+E
|-0----0--------|-1----1--------|-2----2--------|--------------------------|
|-1----1--------|-1----1--------|-3----3--------|------13-------13---(13)--|
|-0----0--------|-2----2--------|-2----2--------|------15pb17===15---(15)r-|
|-2----2--------|-3----3--3-2---|-0----0--0-----|--------------------------|
|-3----3--3-2-0-|-3----3------3-|-----------2---|--------------------------|
|-x----x--------|-1----1--------|-------------3-|--------------------------|
|
| Q. Q E E E Q. Q E E E Q. Q E E E Q.
Q
E E E
|-0----0--------|-1----1--------|-2----2--------|-3-----3------------------|
|-1----1--------|-1----1--------|-3----3--------|-3-----3------------------|
|-0----0--------|-2----2--------|-2----2--------|-0-----0------------------|
|-2----2--------|-3----3--3-2---|-0----0--0-----|-0-----0------------------|
|-3----3--3-2-0-|-3----3------3-|-----------2---|-2-----2----------0---2---|
|-x----x--------|-1----1--------|-------------3-|-3-----3--------3---------|
C

PM
Q. Q E E E Q. Q E E E Q. Q E E E Q.
Q
E +E
E
|-0----0--------|-1----1--------|-2----2--------|-3-----3--------------------|
|-1----1--------|-1----1--------|-3----3--------|-3-----3--------------------|
|-0----0--------|-2----2--------|-2----2--------|-0-----0--------------------|
|-2----2--------|-3----3--3-2---|-0----0--0-----|-0-----0--------0-(0)---0---|
|-3----3--3-2-0-|-3----3------3-|-----------2---|-2-----2--------2-(2)---2---|
|-x----x--------|-1----1--------|-------------3-|-3-----3--------3-(3)---3---|
|
| Q. Q E E E Q. Q E E E Q. Q E E E Q.
Q
Q
+E
|-0----0--------|-1----1--------|-2----2--------|----------------------------|
|-1----1--------|-1----1--------|-3----3--------|-------8--------8------(8)--|
|-0----0--------|-2----2--------|-2----2--------|------10pb12===10-----(10)r-|
|-2----2--------|-3----3--3-2---|-0----0--0-----|----------------------------|
|-3----3--3-2-0-|-3----3------3-|-----------2---|----------------------------|
|-x----x--------|-1----1--------|-------------3-|----------------------------|
H.=H
Q=74
G
Gtrs I, II
PM------------|
E E E E E E E E E E E E E E E E
|-----------------|-----------------|
|-----------------|-----------3-3-3-|
|-----------------|-------4-4-4-4-4-|
|-----------------|-5-5-5-5-5-5-5-5-|

|-------------5-5-|-5-5-5-5-5-5-5-5-|
|-3-3-3-3-3-3-3-3-|-3-3-3-3-3-3-3-3-|
Q=114
Cm
G#
F
W
W
W
|-3--------|----------|-1----|
|-4--------|-4--------|-1----|
|-5--------|-5--------|-2----|
|-5--------|-6--------|-3----|
|-3--------|-6--------|-3----|
|----------|-4--------|-1----|
Q=106
Gtrs I, II, III
~
~
~~
~
Q Q Q Q
Q E. +S Q Q
|-------------|-----------------||
|-------------|-----------------||
|-------------|-----------------||
|-------------|-0--1--(1)S4--5--||
|-------2--3--|-----------------||
|-3--4--------|-----------------||
Guitar Solo
Cm
Gtr III
W
|
/

G#
W
|
/

Gtrs I, II
~~~~~~~~~~~~~~~~~~~
~~~~~~~
H.
+E
E
S. S. E E +T T Q +E +E
|----------------------13-|-11--10---------------------------|
|-[13]pb14=======(13)r----|---------13-11-(11)---9--(9)-(9)\-|
|-------------------------|----------------------------------|
|-------------------------|----------------------------------|
|-------------------------|----------------------------------|
|-------------------------|----------------------------------|
F
W
|
/
~~~~
S Q
+Q
Q
+E.
|-------------------------------|
|-------------------------------|
|---10b12===(10)r--[10]--(10)\--|
|-------------------------------|
|-------------------------------|
|-------------------------------|

G
H
|
/

Em(type 2)
H
|
/

S S S S S S
S
S S
S
E
+E +E
|---------------------------------------------------------------|
|-----------------------------13-13b13.5-13b14-13b15==(13)-(13)r|
|---12-13-15-15-15b16.5-15b17-----------------------------------|
|---------------------------------------------------------------|
|---------------------------------------------------------------|
|---------------------------------------------------------------|
Cm
W
|
/
\0.5/ \0.5/ \0.5/ \0.5/ \0.5/ \0.5/
+S
+S
+S
+S
+S
+S
+E H
|------------------------------------------------------------|
|-(13)----(13)----(13)----(13)----(13)----(13)----(13)\------|
|------------------------------------------------------------|
|------------------------------------------------------------|
|------------------------------------------------------------|
|------------------------------------------------------------|
G#

F
W
|
/

W
|
/

~~~~~~~
|--3--|
E
+Q
E Q +S +S T S.
E E E +E +Q
E Q
|-[15]pb16==(15)r=[15]-13--(13)-(13)---10--|-11-10---------------------|
|------------------------------------------|-------13-(13)-(13)\-------|
|------------------------------------------|---------------------------|
|------------------------------------------|---------------------------|
|------------------------------------------|---------------------------|
|------------------------------------------|---------------------------|
G
H
|
/

Em(type 2)
H
|
/

Cm
W
|
/
~~

|--3--|
S S. T E
E E T Q
T E
E. E +E. Q S S Q
|--------------------------------------|--------------------------|
|----------15b18-----------------------|--------------------------|
|-12-12----------12--------15b17r===12-|--------------------------|
|-------------------13-----------------|-15--13-(13)\----13h15p13-|
|--------------------------------------|--------------------------|
|--------------------------------------|--------------------------|

G#
W
|
/

F
W
|
/

S S +E a E. H
S
+S +S E
S E. H
|-------------------------------|------------------------------||
|-------------------------------|------------------------------||
|-------------------0----12b14==|=(12)-(12)r-------------------||
|-13-12-(12)-12s10--------------|------------xpb10.5-x---------||
|-------------------------------|------------------------------||
|-------------------------------|------------------------------||
Gtrs I, II, III
~
~
~~
~
Q Q Q Q
Q E. +S Q Q
|-------------|-----------------|
|-------------|-----------------|
|-------------|-----------------|
|-------------|-0--1--(1)S4--5--|
|-------2--3--|-----------------|
|-3--4--------|-----------------|
G
Gtr III
H
|
/

Em(type 2)
H
|
/

Gtrs I, II
~~~~~~~~
~~~~~~~~
Q +E +E
Q +E E
|---------------15--(15)---|
|--------------------------|
|-12--(12)-(x)/------------|
|--------------------------|
|--------------------------|
|--------------------------|
|
| Gtr IV
| W
|--------------------------|
|--------------------------|
|--------------------------|
|--------------------------|
|--------------------------|
|--------------------------|
Q=156
Cm
W
W
|
/
\0.75/

\0.75/

\0.75/

\0.75/

\1/

\1/

\1.25/|

Q
+S
+S
+S
+S
+S
+S
+S
|
|-17pb18.5=====(17)-----(17)-----(17)-----(17)-----(17)--(17)--(17)----|
|----------------------------------------------------------------------|
|----------------------------------------------------------------------|
|----------------------------------------------------------------------|
|----------------------------------------------------------------------|
|----------------------------------------------------------------------|
\1.25/ \1/ \1/ \0.75/
+S
+S
+S
+E
Q
Q
H
-(17)-----(17)--(17)--(17)r====|=(17)\-------------------||
-------------------------------|---x\--------------------||
-------------------------------|-------------------------||
-------------------------------|-------------------------||
-------------------------------|-------------------------||
-------------------------------|-------------------------||
|
| E
q
q
q |
|-------------------------------------------------------------------|
|-------------------------------------------------------------------|
|-------------------------------------------------------------------|
|-----------10--------------------10----------------------------10--|
|-------------------------------------------------------------------|
|--8-------------8-----------------------------------8--------------|
Q
Q
Q
|
E
E
q
Q
q
E
----------------------------------|-------------------------||
----------------------------------|-------------------------||
----------------------------------|-------------------------||
--------------------------10------|-------10---10---10---10-||
----------------------------------|-------------------------||
---------------8------------------|---8------8----8----8----||
Q
Q
Q
Q
Q

Interlude
Gtr IV
E q
q
q
E 6x
E q
q q E E q q
q
E
||-----------------------||-||--------------------|---------------------||
||o---------------------o||-||o-------------------|--------------------o||
||-----------------------||-||--------------------|---------------------||
||----10---10---10---10--||-||----10---10---6---6-|---9---9---10---10---||
||o---------------------o||-||o-------------------|--------------------o||
||--8----8----8----8-----||-||--8----8----4---4---|-7---7---8----8------||
Q
Q
Q
Q
Q
Q
Q Q
Q Q Q
Q
E q
q
q
E 6x
E q
q q E E q q
q
E
||-----------------------||-||--------------------|---------------------||
||o---------------------o||-||o-------------------|--------------------o||
||-----------------------||-||--------------------|---------------------||
||----10---10---10---10--||-||----10---10---6---6-|---9---9---10---10---||
||o---------------------o||-||o-------------------|--------------------o||
||--8----8----8----8-----||-||--8----8----4---4---|-7---7---8----8------||
Q
Q
Q
Q
Q
Q
Q Q
Q Q Q
Q

E q
q
q
E 3x
E q
q q E E q q
q
E
||-----------------------||-||--------------------|---------------------||
||o---------------------o||-||o-------------------|--------------------o||
||-----------------------||-||--------------------|---------------------||
||----10---10---10---10--||-||----10---10---6---6-|---9---9---10---10---||
||o---------------------o||-||o-------------------|--------------------o||
||--8----8----8----8-----||-||--8----8----4---4---|-7---7---8----8------||
Q
Q
Q
Q
Q
Q
Q Q
Q Q Q
Q
4/4
E q
q
q
E
E q
q
q
E E q
q
q
E 3x
|---------------------||----------------------|-----------------------||
|---------------------||o---------------------|----------------------o||
|---------------------||----------------------|-----------------------||
|---10---10---10---10-||----10---10---10---10-|---10---10---10---10---||
|---------------------||o---------------------|----------------------o||
|-8----8----8----8----||--8----8----8----8----|-8----8----8----8------||
Q
Q
Q
Q
Q
Q
Q
Q
Q
Q
Q
Q
4/4
E q q q E E q q q E E q q q E
|-----------------|-----------------|------------------||
|-----------------|-----------------|------------------||
|-----------------|-----------------|------------------||
|---9---9---9---9-|---8---8---7---7-|---6---5---4---3--||
|-----------------|-----------------|------------------||
|-7---7---7---7---|-6---6---5---5---|-4---3---2---1----||
Q Q Q Q
Q Q Q Q
Q Q Q Q
Breakdown
Q=156
E5
F#5
11/8
Gtrs I, II
Q Q E. E. E E E E 8x
Q Q E. E. E E E E 4x
||-----------------------||-||-----------------------||
||o---------------------o||-||o---------------------o||
||-----------------------||-||-----------------------||
||-----2------------2----||-||-----4------------4----||
||o---------------2---2-o||-||o---------------4---4-o||
||--0-----0--0--0--------||-||--2-----2--2--2--------||
Pre-Verse
Q=132
C#m Em
6/8
Gtrs I, II
Q. Q.
|
|
/
/

G#

Q.
|
/

Q.
|
/

Gtr IV
W
W
||------------|-----------|
||o-----------|-----------|
||------------|-----------|

||------------|-----------|
||o-----------|-----------|
||------------|-----------|

C#m
Q.
|
/

1.
Cm
E Q E Q
| | | |
/ / / /

Em
Q.
|
/

2.
C5
S.
|
/

Cm
C5 Cm
S +S. E S. S +S. S S
| | | | | | |
/ / / / / / /

W
W
W
|-----------|------------||-|-------------------------|
|-----------|-----------o||-|-------------------------|
|-----------|------------||-|-------------------------|
|-----------|------------||-|-------------------------|
|-----------|-----------o||-|-------------------------|
|-----------|------------||-|-------------------------|
C#m
6/8
Q.
|
/

Em

G#

Q.
|
/

Q.
|
/

Q.
|
/

W
W
||------------|-----------|
||o-----------|-----------|
||------------|-----------|
||------------|-----------|
||o-----------|-----------|
||------------|-----------|

C#m
Q.
|
/

Em
Q.
|
/

1.
Cm
Q.
|
/

2.
Cm
Q E Q E
| | | |
/ / / /

E E E
| | |
/ / /

W
W
W
|-----------|-------------||-|-----------|
|-----------|------------o||-|-----------|
|-----------|-------------||-|-----------|
|-----------|-------------||-|-----------|
|-----------|------------o||-|-----------|
|-----------|-------------||-|-----------|
Verse
C#m
6/8
Q.
|
/

3
Em

G#

C#m Em

Cm

Q.
|
/

Q.
|
/

Q.
|
/

Q.
|
/

E E E E E +E
| | | | | |
/ / / / / /

Q.
|
/

W
W
W
W
|-----------|-----------|-----------|--------------|
|-----------|-----------|-----------|--------------|

|-----------|-----------|-----------|--------------|
|-----------|-----------|-----------|--------------|
|-----------|-----------|-----------|--------------|
|-----------|-----------|-----------|--------------|
C#m
Em
6/8
S S S S +S +S S S S S +S +S
| | | | | | | | | | | |
/ / / / / / / / / / / /

G#

S S S S +S +S S S S S +S +S
| | | | | | | | | | | |
/ / / / / / / / / / / /

W
W
||------------------------------|------------------------------|
||o-----------------------------|------------------------------|
||------------------------------|------------------------------|
||------------------------------|------------------------------|
||o-----------------------------|------------------------------|
||------------------------------|------------------------------|
1.
Cm
E E E E E E
| | | | | |
/ / / / / /

C#m
Em
S S S S +S +S S S S S +S +S
| | | | | | | | | | | |
/ / / / / / / / / / / /

2.
C5
S S S S +S S S S S S S +S
| | | | | | | | | | | |
/ / / / / / / / / / / /

W
W
W
|-----------------------------|--------------||-|---------------------------|
|-----------------------------|-------------o||-|---------------------------|
|-----------------------------|--------------||-|---------------------------|
|-----------------------------|--------------||-|---------------------------|
|-----------------------------|-------------o||-|---------------------------|
|-----------------------------|--------------||-|---------------------------|
C#m
Em
6/8
S S S S +S +S S S S S +S +S
| | | | | | | | | | | |
/ / / / / / / / / / / /

G#

S S S S +S +S S S S S +S +S
| | | | | | | | | | | |
/ / / / / / / / / / / /

W
W
||------------------------------|------------------------------|
||o-----------------------------|------------------------------|
||------------------------------|------------------------------|
||------------------------------|------------------------------|
||o-----------------------------|------------------------------|
||------------------------------|------------------------------|

C#m
Em
S S S S +S +S S S S S +S +S
| | | | | | | | | | | |
/ / / / / / / / / / / /

1.
Cm
E E E E E E
| | | | | |
/ / / / / /

2.
Cm
S S S S S S S S S S S S
| | | | | | | | | | | |
/ / / / / / / / / / / /

W
W
W
|-----------------------------|--------------||-|-------------------------|
|-----------------------------|-------------o||-|-------------------------|

|-----------------------------|--------------||-|-------------------------|
|-----------------------------|--------------||-|-------------------------|
|-----------------------------|-------------o||-|-------------------------|
|-----------------------------|--------------||-|-------------------------|
C#m
Em
6/8
S S S S +S +S S S S S +S +S
| | | | | | | | | | | |
/ / / / / / / / / / / /

G#

S S S S +S +S S S S S +S +S
| | | | | | | | | | | |
/ / / / / / / / / / / /

W
W
|-----------------------------|-----------------------------|
|-----------------------------|-----------------------------|
|-----------------------------|-----------------------------|
|-----------------------------|-----------------------------|
|-----------------------------|-----------------------------|
|-----------------------------|-----------------------------|
C#m
Em
S S S S +S +S S S S S +S +S
| | | | | | | | | | | |
/ / / / / / / / / / / /

Cm
S S S S S S S S S S S S
| | | | | | | | | | | |
/ / / / / / / / / / / /

W
W
|-----------------------------|--------------------------|
|-----------------------------|--------------------------|
|-----------------------------|--------------------------|
|-----------------------------|--------------------------|
|-----------------------------|--------------------------|
|-----------------------------|--------------------------|
Outro
Cm
Gtrs I, II
S S S S S S S S S S S S S S S S S S S S S S S S
||--3-3-3-3-3-3-3-3-3-3-3-3-|-3-3-3-3-3-3-3-3-3-3-3-3--||
||o-4-4-4-4-4-4-4-4-4-4-4-4-|-4-4-4-4-4-4-4-4-4-4-4-4-o||
||--5-5-5-5-5-5-5-5-5-5-5-5-|-5-5-5-5-5-5-5-5-5-5-5-5--||
||--5-5-5-5-5-5-5-5-5-5-5-5-|-5-5-5-5-5-5-5-5-5-5-5-5--||
||o-3-3-3-3-3-3-3-3-3-3-3-3-|-3-3-3-3-3-3-3-3-3-3-3-3-o||
||--x-x-x-x-x-x-x-x-x-x-x-x-|-x-x-x-x-x-x-x-x-x-x-x-x--||
Cm
>
H.
+H.
+H.
+H.
+H.
+H.
|-3-------|-(3)------|-(3)------|-(3)------|-(3)------|-(3)----|
|-4-------|-(4)------|-(4)------|-(4)------|-(4)------|-(4)----|
|-5-------|-(5)------|-(5)------|-(5)------|-(5)------|-(5)----|
|-5-------|-(5)------|-(5)------|-(5)------|-(5)------|-(5)----|
|-3-------|-(3)------|-(3)------|-(3)------|-(3)------|-(3)----|
|-x-------|-(x)------|-(x)------|-(x)------|-(x)------|-(x)----|
Q=46
Cm

Ebm

Emadd9

Em

Gtr IV
H.
H.
H.
H.
3x
||--^3-------|-^6-------|-^0-------|-^0------||
||o-^4-------|-^7-------|-^0-------|-^0-----o||
||--^5-------|-^8-------|-^0-------|-^0------||
||--^5-------|-^8-------|-^4-------|-^2------||
||o-^3-------|-^6-------|-^2-------|-^2-----o||
||-----------|----------|-^0-------|-^0------||
I do not own any of these tabs.