You are on page 1of 10

News Tablature JAZZ Standards Chords Scales Licks Arpeggios Forum Links Video Lessons

Home

AdChoices Guitar Lesson Chords Guitare Tab Guitar Pro


Like Share Sign Up to see what your friends like.

Tab: King Crimson - BOOK OF SATURDAY


FEB
By Alex | Login or register to post comments
16

Tabs by Artist
0-9 A B C D E F G H I J K L M N O P Q R S T U V W X Y
Z
BOOK OF SATURDAY
As recorded by King Crimson
(From the 1973 Album LARK'S TONGUES IN ASPIC)
Tablature (Tab) for Guitar
Transcribed by Montagna ( masterblaster35@yahoo.com)
Words by Palmer-James
Music by Fripp, Wetton & Palmer-James
Arranged by Robert Fripp & John Wetton

Am/E Am9/E Dm9 G/D

12 12 10 14 13 x 12 12 10 12 12 x x x 0 10 13 12 x x 0 12 12 x
Dm6 C Dm/F Dm7/F

x x 0 10 12 10 x x 10 9 8 8 x x x 10 10 10 x x x 10 13 10
Dm6/F Dmadd9/A Cadd11 E

x x x 10 12 10 xx7760 x x 10 10 13 12 xxx997
F#m/E Eadd9 EIV F#m7/B

xxx975 0x647x 0x645x x2425x


Bm7 Dm7 Am/B Am

x2423x x57565 7x755x x0x5x5


Bm/A AmVIII Em/A AmXVII

x0x7x7 x0x9x8 x 0 x 12 x 12 x 0 x 17 x 17
G/B Am/C G/C Dm

xx9787 x x 10 14 13 x x x 10 12 12 x x x 0 10 10 x
Em/D Dm7VI Dmadd9 F/C

xx098x xx0768 xx0760 x x 10 10 10 x


E5/B A/C# Dsus2/B Am/CV

xxx457 xxx655 7x775x xxx555


Bm/C C/D Em Amadd9

xxx537 xxx758 x x x 9 8 12 x02410


Amopen Asus2 Am7 Am/D

x02210 x02200 x02010 xx0210


C5/F C/E Bsus4 F#sus2/Ab

x x x 10 8 8 x x 14 0 13 15 xx99x7 x 11 x 11 9 9
D5/G

x x x 12 10 10
Gtr I (E A D G B E) - 'Robert Fripp '

Gtr II (E A D G B E) - 'Fripp (Backwards Guitar)'

Gtr III (E A D G B E) - 'David Cross'

Intro
Q=106
Am/E Am9/EDm9
4/4
Gtr I
H Q E E Q E E e E E E
|----------------|----------------------------------|
|----------------|---------------13------13-12------|
|----------------|---------------14------14-12---10-|
|----------------|----------10------(10)-------0----|
|----------------|--<12>--(<12>)--------------------|
|-----------<12>-|-(<12>)---------------------------|
E Q +E Q Q

Dm6 G/D Am/E Am9/EDm9


Q. Q Q E Q E E e E E E
|--12--------10---------------|-----------------------------|
|--13--------12----<12>-------|---------13------13-12-------|
|-(10)------(10)---<12>-------|---------14------14-12---10--|
|--(0)--(0)-------------------|------10----(10)-------0-----|
|-----------------------------|-<12>------------------------|
|------------------------<12>-|-----------------------------|
+Q +Q H E Q +E Q Q

Verse I
Dm6 G/D Am/E Am9/EDm9
Q. Q Q E Q E E e E E E
|--12----10-------------||----------------------------------|
|--13----12--<12>-------||---------------13------13-12------|
|-(10)-------<12>-------||---------------14------14-12---10-|
|-----------------------||----------10------(10)-------0----|
|-----------------------||--<12>--(<12>)--------------------|
|------------------<12>-||-(<12>)---------------------------|
E Q +E Q Q

Dm6 G/D Am/E Am9/EDm9 JamCat is a


free iOS app
Q. Q Q E Q E E e E E E
|--12--------10---------------|----------------------------------|

and website
|--13--------12----<12>-------|---------------13------13-12------|
|-(10)------(10)---<12>-------|---------------14------14-12---10-|
|--(0)--(0)-------------------|----------10------(10)-------0----|
|-----------------------------|--<12>--(<12>)--------------------| that helps
|------------------------<12>-|-(<12>)---------------------------|
+Q +Q H E Q +E Q Q
Bands and
Musicians
Chorus I get
Dm6 Dm9
5/4
Dm6 C
organized.
Q. Q. E E Q e Q a e E E e E
|--12----10---------||--12----12---10----------------8---|
|--13----12---------||--13----13---12-----12p10------8---|
|-(10)-----------10-||-(10)--(10)-(10)-------------9-----|
|--------------0----||--(0)---------------------10-------|
|-------------------||-----------------------------------|
|-------------------||-----------------------------------|
H. Q +H H.

Dm9 Dm/F C
E S S E E S S E E E e E
|-12------------10-------------------8---|
|-13--10-----13-10-10------10--------8---|
|-10-----10-----------(10)---------9-----|
|-------------------------------10-------|
|----------------------------------------|
|----------------------------------------|
E. Q. +E S H

Dm7/F Dm6/F C
E. S S S S S S E. Q e E
|-----------10-10-----------------8----|
|-13-----13-------12-------------------|
|-----10-------------10-10-------------|
|---------------------------10--(10)---|
|--------------------------------------|
|--------------------------------------|

Verse II
Dmadd9/A Am/E Am9/EDm9
4/4
E Q Q E H Q E E e E E E
|----------------0-----||-----------------------|
|------------6--(6)----||-------13---13-12------|
|------------6--(6)----||-------13---13-12------|
|-------7---(7)-(7)----||-------14---14-12---10-|
|---7--(7)--(7)-(7)----||---10-------------0----|
|----------------------||-----------------------|
|----------------------||-----------------------|
E Q. Q Q

Dm6 G/D Am/E Am9/EDm9


Q. Q. Q Q E E e E E E
|--12-----10----------|-----------------------|
|--13-----12----<12>--|-------13---13-12------|
|-(10)---(10)---<12>--|-------14---14-12---10-|
|--(0)----------------|---10-------------0----|
|---------------------|-----------------------|
|---------------------|-----------------------|
+H. Q E Q. Q Q

Chorus II
Dm6 Dm9 Dm7/F Dm6/F C
5/4
Q. Q. E E E. S E E E E E E e E
|--12-----10---------||-12--------10-----------------8-----|
|--13-----12---------||-13-----13----12--------------8-----|
|-(10)---(10)-----10-||-----10----------10------9---(9)----|
|--(0)----------0----||--------------------10-(10)-(10)----|
|--------------------||------------------------------------|
|--------------------||------------------------------------|
+H. Q

Dm9 Cadd11 Dm6 C Dm9 Cadd11 N.C. E F#m/E


2/4
Q Q. e E E e E e S S E Q e E E Q Q Q
|-12-------(12)---10--------8----|-12---------------------8-(8)--|-7---5---||
|-13--------13----12--------8----|-13-------13-12---10-------8---|-9---7---||
|-------10-----------------------|-------10----10----------------|---9---9-||
|----10----------------10-(10)---|----10---------------10--------|---------||
|--------------------------------|-------------------------------|---------||
|--------------------------------|-------------------------------|---------||
E S S H. Q H Q H E Q E

Interlude I
Eadd9 EIV Eadd9 F#m7/B Bm7 F#m7/Dm7
4/4
Q Q Q Q Q Q Q Q
|-----------------|----------------------|
|-----7---5----7--|----------5-----3--5--|
|-----4---4----4--|----------2-----2--2--|
|---6---6---6-----|------4--(4)----------|
|-----------------|--2--(2)-(2)----------|
|-0---------------|----------------------|
| E Q Q Q. E E +H.
|
| Gtr II
| < < < < <
| W +E E E E H
|-----------------|----------------------|
|-----------------|----------5--7-10-----| Learn more at:
|-4---------------|-(4)--6---------------| www.JamCatApp.com
|-----------------|----------------------|
|-----------------|----------------------|
|-----------------|----------------------|
FORUM
NEWS
Am/B Am Bm/AmVIII Em/A
Q E e Q Q E E E E E E E E
CHORDS
|--------------5-----------|------5--5--7--8--------12----|
|-----------5--6--------5--|------------------------------|
|-----------------------5--|------5--5--7--9--------12----|
SCALES
|-------7------------7-----|------------------------------|
ARPEGGIOS
|---5--(5)-----------------|---0--------------------------|
|-----------------7-(7)----|------------------------------|
| E Q. E Q.
|
| < < < < < < < <
| +Q E E E Q. +Q E E E. S +Q
Username: *
|----------10S12-13-12-----|-(12)---10S12-13----12-(12)---|
|-(10)---------------------|------------------------------|
|--------------------------|------------------------------|
Password: *
|--------------------------|------------------------------|
|--------------------------|------------------------------|
|--------------------------|------------------------------|

Log in
AmXVII C
W E S S E Q E Q Create new account
|--17-----------------|---------8--------------------8-----| Request new password
|---------------------|------8-----------------------8-----|
|--17-----------------|-----------9-----------9-----(9)----|
|---------------------|--10------------10------------------|
|---------------------|------------------------------------|
|---------------------|------------------------------------|
| Q. Q. Q
|
| < < < < < < < < <
| < < < < < < < < <
| +Q E Q E Q +E. E Q E E. E
|-(12)--17-20--17-----|--------15---17-----15-----------15-|
|-----------------17--|-(17)--------------------17---------|
|---------------------|------------------------------------|
|---------------------|------------------------------------|
|---------------------|------------------------------------|
|---------------------|------------------------------------|

G/B N.C.
E S S Q Q e E
|------------7---------------------------------|
|-------------------8----------------12--------|
|----------7-----------------------------------|
|---9--------------------9---------------------|
|----------------------------------------------|
|----------------------------------------<12>--|
| Q. Q. Q
|
| < < <
| +T E. +S Q E. T +E E
|-(15)-17------(17)---15---------20-(20)--17---|
|----------------------------------------------|
|----------------------------------------------|
|----------------------------------------------|
|----------------------------------------------|
|----------------------------------------------|

Am/C G/C Dm Em/D


+E E S S S S S S S s S S E
|-----------------------------------------------||
|---------------13-------12---------10------8---||
|------------------14-------12---------10-----9-||
|--------10-----------10-------10---------0-----||
|-----------------------------------------------||
|-(<12>)----------------------------------------||
|
| Gt
| < <
| E. Q. Q..
|---24------20----------------------------------||
|-----------------------------------------------||
|-----------------------------------------------||
|-----------------------------------------------||
|-----------------------------------------------||
|-----------------------------------------------||

Interlude II - Violin Solo


Dm7VI Dmadd9 Am/C G/C Dm Em/D
Q S S S S S E. +Q E E S S S S S S S s S S E
|--------8-----0--(0)-(0)----(0)----|-----------------------------------------|
|----------6-------6--(6)----(6)----|--------13-------12---------10------8----|
|-----7------7---------7-----(7)----|-----------14--------12--------10-----9--|
|--0-(0)----------(0)---------------|-----10-------10---------10-------0------|
|-----------------------------------|-----------------------------------------|
|-----------------------------------|-----------------------------------------|
| E Q. +H
|
|r III
| H +E E E E Q. E +H
|-22-------------(22)-----20-19--20-|-22-----------24----(24)-----------------|
|-----------------------------------|-----------------------------------------|
|-----------------------------------|-----------------------------------------|
|-----------------------------------|-----------------------------------------|
|-----------------------------------|-----------------------------------------|
|-----------------------------------|-----------------------------------------|

Dm7VI Dmadd9 Dm9 Cadd11 Dm6 F/C C


5/4
Q S S S S +Q. E Q. Q. Q e E
|-----------8-(8)-(8)--0--(0)------|--12-----------10----------------8---|
|--------------6--(6)-(6)-(6)------|--13--------13-12--------10------8---|
|-------7----------7--(7)-(7)---10-|---------10-----------10-------9-----|
|---0--(0)----------------(0)------|------10-----------10-------10---7---|
|----------------------------------|-------------------------------------|
|----------------------------------|-------------------------------------|
| E Q. +H E S S E E S S E E E e E
|
| +Q E H E +Q. Q E H
|-(24)-----22-------------------22-|-(22)----------20--------22-24-------|
|----------------------------------|-------------------------------------|
|-----------------21---------------|-------------------------------------|
|----------------------------------|-------------------------------------|
|----------------------------------|-------------------------------------|
|----------------------------------|-------------------------------------|

Dm9 Dm6 C
S S S S S S E. S E E E e E
|-12----------------10------------------8---|
|----13----------12--------12---------------|
|-------10-10-----------------10-----9------|
|--------------0-----------------10-----7---|
|-------------------------------------------|
|-------------------------------------------|
|-------------------------------------------|
| Q H H
|
| E E E E E E E E Q
|-22----20----19----19--20----19-20-22-24---|
|-------------------------------------------|
|-------------------------------------------|
|-------------------------------------------|
|-------------------------------------------|
|-------------------------------------------|

Dm9 Dm9 Dm6 F/C C E5/B A/C#


2/4
Q. Q.. S E Q Q Q
|--12---------------10-------------------------------8-(8)---|--7-----5-----|
|--13------------13-12----------------------------------8----|-----5-----5--|
|-------------10----------------10---------------12----------|--4-----6-----|
|----------10----------------10-------10------------10-------|--------------|
|------------------------------------------------------------|--------------|
|------------------------------------------------------------|--------------|
| E S S E E S E E S Q E E Q E
|
| +T Q. E. E T +H E E E E
|-(24)-22----------------20--------22----24-(24)-------------|-19-20-19-20--|
|------------------------------------------------------------|--------------|
|------------------------------------------------------------|--------------|
|------------------------------------------------------------|--------------|
|------------------------------------------------------------|--------------|
|------------------------------------------------------------|--------------|

Eadd9 EIV Eadd9F#m7/B Bm7 F#m7/B


4/4
E E E S S S S S S Q E E S S S S S S S S S S E
|-----------------------|---------------------------|
|--------7-----5-----7--|-----5-----3-----5-------5-|
|------4---4-----4------|-------2-----2-----2---2---|
|----6-------6-----6----|---4-----4-----4-----4-----|
|-----------------------|-2-------------------------|
|-----------------------|---------------------------|
|
| H H W
|-19--------------------|---------------------------|
|-----------------------|---------------------------|
|-----------------------|---------------------------|
|-----------------------|---------------------------|
|-----------------------|---------------------------|
|-----------------------|---------------------------|

Dm7 Dsus2/B
E E E e E E E E
|------------5--------------|
|------------6---------5----|
|--------5--(5)--------7----|
|----7--(7)-(7)----7--(7)---|
|-5-(5)-(5)-(5)-------------|
|---------------7-(7)-(7)---|
|
| W
|---------------------------|
|---------------------------|
|---------------------------|
|---------------------------|
|---------------------------|
|---------------------------|

Am/CBm/C C/D Em AmXVII


5/4
E S S e S S e S S S E S E S S
|-----5-----7-----8-----12-----17-|
|---------3-----5--------8--------|
|---5---5-----7-----9----------17-|
|---------------------------------|
|---------------------------------|
|---------------------------------|
|
| W
|---------------------------------|
|---------------------------------|
|---------------------------------|
|---------------------------------|
|---------------------------------|
|---------------------------------|

Interlude III - Gtr & Violin


C
4/4
+S E. +H. E S S E Q E Q
|-(17)-(17)-(17)------||--------8-----------8-----|
|-------17--(17)------||------8-------------8-----|
|-(17)-(17)-(17)------||----------9------9--------|
|---------------------||-10---------10------------|
|---------------------||--------------------------|
|---------------------||--------------------------|
| Q. H E
|
| Gtr II
| < < < <
| W E Q Q E E E
|---------------------||-24-----------------------|
|---------------------||--------------------------|
|---------------------||-----14-----12------------|
|---------------------||----------------14S12-10--|
|---------------------||--------------------------|
|---------------------||--------------------------|
W

G/B Amadd9 Amopen


E E E Q E e E Q S S a Q Q.
|-----------------------7--------|---------------0--------------0--------------------|
|------8-------------------------|---------------1--------------1--------------------|
|----7-----------7-----(7)-------|----------4----4-0h=2--------(2)-------2-----------|
|--9-----9------(9)----(9)-----2-|-------2-------------------------------2---------2-|
|--------------------------------|---0------------------------------------------0----|
|--------------------------------|---------------------------------------------------|
| E S E S Q +E E S S
|
| < < < < < < < < < < <
| H +E S S S E. +E S E S E S S. S E T +E
|-22-----------------------------|---------------------------------------------------|
|--------------------------------|---------------------------------------------------|
|-12-------(12)--------12--14----|-(14)-14S12---12-----------------------------------|
|---------------12--14-----------|-------------------14-14-12------12S10-------------|
|--------------------------------|-----------------------------------------12-(12)---|
|--------------------------------|---------------------------------------------------|
W

AmaddAmopen
+E. E +E E +Q..
|--(0)----0----(0)----0----(0)------------|
|--(1)----1----(1)----1----(1)------------|
|-------4----2----------------------0-----|
|--(2)-------------------2-------------2--|
|-----------------------------------------|
|-----------------------------------------|
| +E E Q Q E E
|
| < < < < <
| +E E E E E E E E
|-----------------------------------------|
|-----------------------------------------|
|-----------------------------------------|
|------10S==12----------10S=====12S14-----|
|-(12)-------------12-----------------12--|
|-----------------------------------------|

Verse III
Asus2 AmopenAm7 Asus2 Amopen Asus2 Amopen Am7
E S E S e E E E E E S E S E +E E E E E S E S E E Q E
|----------0-----0-----|-------0-------0-----||---------0-----0--------|
|--------0-1-----1-----|-----0-1-------1-----||-------0-1-----1--------|
|------------2-----0---|---------0-(0)---2---||------------2----0------|
|------2-------------2-|---2---------------2-||-----2----------------2-|
|---0------------------|-0-------------------||--0---------------------|
|----------------------|---------------------||------------------------|
|
| < < <
| +W W Q. Q. Q
|----------------------|---------------------||------------------------|
|----------------------|---------------------||------------------------|
|----------------------|---------------------||------------------------|
|----------------------|---------------------||-10--------12------14---|
|-(12)-----------------|---------------------||------------------------|
|----------------------|---------------------||------------------------|

Dm7 Amopen Amadd9 Amopen Am7


E E E E +E E E E E S E S E +E E E E
|-----------------5-------|--------------------0------|
|----------5-(5)--6-------|----------1---------1------|
|-------5------------5----|--------4----2--(2)----0---|
|-----7-------------------|------2------------------2-|
|--5--------------------7-|---0-----------------------|
|-------------------------|---------------------------|
|
| < < < < <
| Q. Q E E E Q. Q. Q
|-------------------------|-(12)-----------------12---|
|-------------------12-13-|--13--------15-------------|
|---------12-----14-------|---------------------------|
|-15----------------------|---------------------------|
|-------------------------|---------------------------|
|-------------------------|---------------------------|
W

Dm7
E E E E +H
E E E E +H
|--------------5--(5)---------------|
|--------------6--(6)---------------|
|----------5--(5)-(5)---------------|
|------7--(7)-(7)-(7)---------------|
|--5--(5)-(5)-(5)-(5)---------------|
|-----------------------------------|
|
| Q. E E E E S S
|-13----------15-(15)-13-12-(12)-10-|
|-17--------------------------------|
|-------------10S==9------9S==7-----|
|-----------------------------------|
|-----------------------------------|
|-----------------------------------|

C5/F Dm9
5/4
Q E E E E Q Q
|-8----------------12-------|
|-8------------8---13-------|
|---10----------------------|
|-----------9----x----------|
|---------------------------|
|---------------------------|
| E E. S H. E
|
| <
| E E E E E E E E Q
|---12S10-------------------|
|---------------------------|
|---10S=9------9S7S=9-------|
|---------------------------|
|---------------------------|
|---------------------------|

C5/F Dm9 C5/F N.C.


E E. S E E E H E Q Q +e Q e E
|-8-(8)------------12------|-8-(8)---------------------|
|-8-(8)--------8---13------|-8-(8)---------------------|
|---10---------------------|---10-----------------12---|
|-----------9----x---------|---------9---(9)-10--------|
|--------------------------|---------------------------|
|--------------------------|---------------------------|
|
| < < < <
| E E E E E E E E Q E E E E E E E E Q
|---12S10------------------|---------------------------|
|-------------10S8---------|---17S15-0-8S=5---3----1---|
|-------------------9------|--------------------2------|
|--------------------------|---------------------------|
|--------------------------|---------------------------|
|--------------------------|---------------------------|

Verse IV
Dmadd9/A Am/E Am9/E Dm9
4/4
Q E E +H Q q E E E E
|------------0--(0)---------||-----------------------------|
|------------6--(6)---------||--------13---13--12----------|
|---------7-(7)-(7)---------||--------14---14--12-------10-|
|-----7---------------------||----10------------------0----|
|---------------------------||--0-(0)----------------------|
|---------------------------||-----------------------------|
| E H.. E H Q.
|
| < < < <
| H +S S E Q H +E S S E E
|--0------------(0)---------||-----------------------------|
|--3------------(3)---------||-----------------12S13S15S13-|
|---------------------------||-14---------(14)-------------|
|-14--------12--14------10--||-----------------------------|
|---------------------------||-----------------------------|
|---------------------------||-----------------------------|
Q. E Q Q

Dm6 G/D Am/E Am9/E Dm9


Q. Q Q. +Q q e E E E
|-12----------10-------------|----------------------------|
|-13----------12------<12>---|-(12)----13----13-12--------|
|---------------------<12>---|-(12)----14----14-12----10--|
|----------------------------|------10--------------0-----|
|----------------------------|----------------------------|
|----------------------------|----------------------------|
| E H Q.
|
| < < <
| E E +Q +H +Q. H E
|----------------------------|------------------------12--|
|-12--12-(12)----(12)--------|-(12)-------13--------------|
|----------------------------|----------------------------|
|----------------------------|----------------------------|
|----------------------------|----------------------------|
|----------------------------|----------------------------|
|----------------------------|----------------------------|

Dm6 Dm9 C
5/4
Q. Q. Q E S S E E. S E E E q
|--12----10--------------------|--12-----------------------------8--|
|--13----12--------------------|--13---------10------------------8--|
|--------------------------10--|-(10)10-10------------10-------9----|
|------------------------0-(0)-|--(0)------0----------------10------|
|------------------------------|------------------------------------|
|------------------------------|-------------------------10---------|
| H. E E +H H.
|
| < <
| +H +E S S E E Q. S E S E H
|-(12)-------(12)-12h13p12-----|--12h========13p12-------12---------|
|--------------------------15--|----------------------15------------|
|------------------------------|------------------------------------|
|------------------------------|----------------------------10------|
|------------------------------|------------------------------------|
|------------------------------|------------------------------------|

Cadd11 Dm6 Dm/F C/E


E S S S E S S S E E S S S S E
|-------12----------------10--------------15----|
|----13----13----------12----10--------13----13-|
|-------------10----10---------------0----------|
|-0-------------------------------14------------|
|-----------------------------------------------|
|-----------------------------------------------|
|
| < < <
| Q. Q. H
|-----------------------------------------------|
|-----------------------------------------------|
|-------------------------------5---------------|
|-7--------------5------------------------------|
|-----------------------------------------------|
|-----------------------------------------------|

Cadd11 Dm6 Dm/F C/E


S S E. s S S S S S S S S S S +Q
|-------12-----------10-------------------------|
|----13-----13----12----10-------------13-(13)--|
|--------------10------------x------12----------|
|--------------------------------14-------------|
|-----------------------------------------------|
|-----------------------------------------------|
|
| < < < < <
| Q. Q E Q Q
|-----------------------------------------------|
|-----------------------------------------------|
|--------------------------7---7------------5---|
|-7-------------5-------------------------------|
|-----------------------------------------------|
|-----------------------------------------------|

Out-Chorus
Bsus4 F#sus2/Ab
2/4 4/4
E E Q E E S S S S H
|--------7---||------------9-----------|
|------------||----------9---9-7-------|
|----9--(9)--||-------11---------------|
|-9-(9)-(9)--||------------------------|
|------------||----11------------------|
|------------||------------------------|
|
| < < < <
| H Q. E E Q.
|------------||------------------------|
|------------||------------7---7-5-----|
|-4----------||------------------------|
|------------||------------------------|
|------------||------------------------|
|------------||------------------------|

Bsus4 D5/G
E S S S E S +Q S S S S E S S S S S E. Q.
|-----------7---(7)-(7)-----7------|---------------------------------|
|---------7------------------------|-------------10------------------|
|-------9--------9--(9)---9----9-x-|----------10----10--------7------|
|-----9----------------------------|-------12------------------------|
|----------------------------------|--------------------x------------|
|----------------------------------|---------------------------------|
|
| < < < < < < < < < <
| +Q E Q E E E a Q E Q Q E
|-----------------------------12---|-12h13-------12----10----12---12-|
|-(5)-----7---5--------------------|---------------------------------|
|-----------------------7-9--------|---------------------------------|
|----------------------------------|---------------------------------|
|----------------------------------|---------------------------------|
|----------------------------------|---------------------------------|
|----------------------------------|---------------------------------|

Am Bm/A Em/A
E S E E Q E. E
|-----------5--5S===7-------7-----12--|
|-------------------------------------|
|--------5-(5)-5S===7-------7-----12--|
|-------------------------------------|
|-------------------------------------|
|-------------------------------------|
|
| < < < < <
| a E Q E E E Q
|-12h13-12-------10---12-13----12-----|
|-------------------------------------|
|-------------------------------------|
|-------------------------------------|
|-------------------------------------|
|-------------------------------------|

AmXVII
E E Q +Q. E
|-------17-(17)----(17)----------|
|-----------17-----(17)----------|
|-------17-(17)----(17)-----x----|
|--------------------------------|
|--------------------------------|
|--------------------------------|
|
| < < < <
| a E Q E Q E. S
|-13S12-10------12------------17S|
|--------------------------------|
|--------------------------------|
|--------------------------------|
|--------------------------------|
|--------------------------------|

C G/B
E H E E E E S S E Q E E E
|-----8---------------8---|-------7------------7----|
|-------------------------|----------8---------8----|
|---------------9---------|-----7-----------7-------|
|-10-------10-------------|--9---------9------------|
|-------------------------|-------------------------|
|-------------------------|-------------------------|
| E Q Q Q. Q. H E
|
| < < < < < < < <
| E E E Q S S Q E E Q Q E E
|-15-12-15-17--15p12-15---|-15S12---15---17---15-17-|
|-------------------------|-------------------------|
|-------------------------|-------------------------|
|-------------------------|-------------------------|
|-------------------------|-------------------------|
|-------------------------|-------------------------|

H.=H
G/C
E E Q H +W
|------------------------12----------------|-(12)----*|
|------------------------------------------|---------*|
|----------12-----------(12)---------------|-(12)----*|
|------10-(10)----------(10)---------------|-(10)----*|
|------------------------------------------|---------*|
|------------------------------------------|---------*|
|
| < < < <
| +Q T E T E T E T E E W
|-(17)-----15--17-15-17------15-17-15-17---|---------*|
|------------------------------------------|---------*|
|------------------------------------------|---------*|
|------------------------------------------|---------*|
|------------------------------------------|---------*|
|------------------------------------------|---------*|
Duration Legend
---------------
W - whole; H - half; Q - quarter; E - 8th; S - 16th; T - 32nd; X - 64th; a - acciaccatura
+ - note tied to previous; . - note dotted; .. - note double dotted
Uncapitalized letters represent notes that are staccato (1/2 duration)
Irregular groupings are notated above the duration line
Duration letters will always appear directly above the note/fret number it represents the
duration for. Duration letters with no fret number below them represent rests. Multi-
bar rests are notated in the form Wxn, where n is the number of bars to rest for. Low
melody durations appear below the staff

Tablature Legend
----------------
h - hammer-on
p - pull-off
b - bend
pb - pre-bend
r - bend release (if no number after the r, then release immediately)
/\ - slide into or out of (from/to "nowhere")
s - legato slide
S - shift slide
<n> - natural harmonic
[n] - artificial harmonic
n(n) - tapped harmonic
~ - vibrato
tr - trill
T - tap
TP - trem. picking
PM - palm muting
\n/ - tremolo bar dip; n = amount to dip
\n - tremolo bar down
n/ - tremolo bar up
/n\ - tremolo bar inverted dip
= - hold bend; also acts as connecting device for hammers/pulls
<> - volume swell (louder/softer)
x - on rhythm slash represents muted slash
o - on rhythm slash represents single note slash

Misc Legend
-----------
| - bar
|| - double bar
||o - repeat start
o|| - repeat end
*| - double bar (ending)
: - bar (freetime)
$ - Segno
& - Coda
Tempo markers - <E/E./Q/Q./H/H.> = BPM(8/16=s8/s16), where s8 = swing 8ths, s16 = swing 16ths

*** GuitarCats.com ***

AdChoices King Crimson Bass Tab Guitar Tablature Acoustic Guitar

2016 |
Arclite theme by digitalnature. | Themes
TOP