You are on page 1of 5

Cassidy Eva Fields Of Gold Tab

NOTE: This is played with a capo on the 7th fret.

INTRO:
Bm Bm G G
Oooo
|----------------|----------------|----------------|----------------|
|-3--------------|-3--------------|-0-----------0--|-------------0--|
|---------4------|---------4------|---------2------|---------2------|
|-----4-------4--|-----4-------4--|-----0----------|-----0----------|
|-2--------------|-0--------------|----------------|----------------|
|----------------|----------------|-3--------------|-3--------------|

D D D D
|----------------|-2h3------------|-2--------------|-2--------------|
|---------3------|-----3-------3--|---------2------|----------------|
|-----2-------2--|---------2------|-----3-------3--|----------------|
|-0--------------|----------------|-0--------------|-0--------------|
|----------------|----------------|----------------|----------------|
|----------------|----------------|----------------|----------------|

VERSE 1:
Bm Bm G G
You'll remember me...
|----------------|----------------|----------------|----------------|
|-3--------------|-3-------3------|-0-----------0--|----------------|
|---------4------|----------------|---------2------|---------0---0h2|
|-----4-------4--|-----4-------4--|-----0----------|-----0----------|
|-2--------------|-2-------0------|----------------|----------------|
|----------------|----------------|-3--------------|-3--------------|

G A D D
among... You can
|----------------|----------------|----------------|-2--------------|
|-0-----------0--|-------------2--|---------3------|----------------|
|---------2------|---------2------|-----2-------2--|-----2------(2)-|
|-----0----------|-----2----------|-0--------------|-0--------------|
|----------------|-0--------------|----------------|---------4------|
|-3--------------|----------------|----------------|----------------|

Bm Bm G D/F#
tell... when we
|----------------|----------------|----------------|----------------|
|-3--------------|-3-------3------|-0--------------|-3--------------|
|---------4------|----------------|---------2------|---------2------|
|-----4-------4--|-----4-------4--|-----0-------0--|-----0-------0--|
|-2--------------|-2-------0------|----------------|----------------|
|----------------|----------------|-3--------------|-2--------------|

walked...
Em A D D
|----------------|----------------|----------------|-2--------------|
|-0-----------0--|-------------2--|---------3------|----------------|
|---------0------|---------2------|-----2-------2--|----------------|
|-----0----------|-----2----------|-0--------------|-0--------------|
|----------------|-0--------------|----------------|----------------|
|-0--------------|----------------|----------------|----------------|

VERSE 2: (same tab as verse 1)

Bm Bm G G
So she took...
G A D D
Among the fields...

Bm Bm G D/F#
In his arms...

Em A D D
among the fields...

VERSE 3: (same tab as verse 1 except last four bars)

Bm Bm G G
Will you stay...

G A D D
Among the fields.... You can

Bm Bm G D/F#
tell the sun... when we

Em A D D D/F#
walked...
|----------------|----------------|---------2h3----|-2-------0------|
|-0-----------3--|-------------2--|-------------3--|----------------|
|---------0------|---------2------|-----2----------|-----2-------2--|
|-----0----------|-----2----------|-0--------------|-0--------------|
|----------------|-0--------------|----------------|----------------|
|-0--------------|----------------|----------------|---------2------|

CHORUS:
G G A D D/F#
I never...
|----------------|----------------|----------------|----------------|
|-3-----------3--|----------------|-------------2--|---------3------|
|---------2------|---------2------|---------2------|-----2----------|
|-----0----------|-----0-------0--|-----2----------|-0-----------0--|
|----------------|----------------|-0--------------|----------------|
|-3--------------|-3--------------|----------------|---------2------|

G G A D D/F#
And there have...
|----------------|----------------|----------------|----------------|
|-3-----------3--|----------------|-------------2--|---------3------|
|---------2------|---------2------|---------2------|-----2----------|
|-----0----------|-----0-------0--|-----2----------|-0-----------0--|
|----------------|----------------|-0--------------|----------------|
|-3--------------|-3--------------|----------------|---------2------|

G G A Bm
but I swear...
|----------------|----------------|----------------|----------------|
|-3-----------3--|-------------3--|-------------2--|-3-------3------|
|---------2------|---------2------|---------2------|----------------|
|-----0----------|-----0----------|-----2----------|-----4-------4--|
|----------------|----------------|-0--------------|-2-------0------|
|-3--------------|-3--------------|----------------|----------------|

G A Bm Bm
We'll walk...
|----------------|----------------|----------------|----------------|
|-0-----------0--|-------------2--|-3--------------|-3--------------|
|---------2------|---------2------|---------4------|---------4------|
|-----0----------|-----2----------|-----4-------4--|-----4-------4--|
|----------------|-0--------------|-2--------------|-0--------------|
|-3--------------|----------------|----------------|----------------|

G A D D D/F#
we'll walk...
|----------------|----------------|----------------|-2--------------|
|-0-----------0--|-------------2--|-3-------3------|----------------|
|---------2------|---------2------|-----2-------2--|-----2------(2)-|
|-----0----------|-----2----------|-0--------------|-0--------------|
|----------------|-0--------------|----------------|---------4------|
|-3--------------|----------------|----------------|----------------|

SOLO:
Acoustic gutiar play same tab as for verse 1. Electric guitar (no capo)
play the following:

G A D D D/F#
we'll walk...
|----------------|----------------|----------------|---------4h5-4--|
|----------------|----------------|----------------|----------------|
|----------------|----------------|----------------|----------------|
|----------------|----------------|----------------|----------------|
|----------------|----------------|----------------|----------------|
|----------------|----------------|----------------|----------------|

Bm Bm G G
|----------------|----------4h5-4-|----------------|----------------|
|-7-----5------5-|----------------|-7---5------5/7-|----------------|
|----------------|----------------|----------------|----------------|
|-7-----6------4-|----------------|----------------|----------------|
|----------------|----------------|----------------|----------------|
|----------------|----------------|----------------|----------------|

G A D D
|-------------5--|(5)-------------|----------------|----------4/5-4-|
|---------7------|-5/7-5-------7--|-5--------------|----------------|
|----------------|---------7---7--|-6--------------|----------4/6-4-|
|----------------|----------------|----------------|----------------|
|----------------|----------------|----------------|----------------|
|----------------|----------------|----------------|----------------|

Bm Bm G D/F#
|----------------|----------------|----------------|----------------|
|-7---5-------5--|-----------7h9--|-10------5------|----------------|
|-----6-------6--|----------------|-----7----------|----------------|
|-7--------------|----------------|----------------|-------------7--|
|----------------|----------------|----------------|----------------|
|----------------|----------------|----------------|----------------|

Em A D D
|----------------|----------------|----------------|--------9----7--|
|-5-------5---5--|-5-\3----3---3--|-----2---2------|--------10---9--|
|-6h7-----6---6--|-6-\4----4---4--|-----2---2------|----------------|
|----------------|----------------|----------------|----------------|
|----------------|----------------|----------------|----------------|
|----------------|----------------|----------------|----------------|

Bm Bm G G
|----------------|-------------4--|-5------5/10----|-10------10-----|
|-10--9-----7----|---------7------|----------------|----------------|
|----------------|----------------|----------------|----------------|
|-11--9-----7----|----------------|----------------|----------------|
|----------------|----------------|----------------|----------------|
|----------------|----------------|----------------|----------------|

G A D D
|--------14--16--|-17------16-----|-12-------------|--------9----7--|
|----------------|----------------|----------------|--------10---9--|
|----------------|----------------|----------------|----------------|
|----------------|----------------|----------------|----------------|
|----------------|----------------|----------------|----------------|
|----------------|----------------|----------------|----------------|

Bm Bm G D/F#
|5------7-----9--|--------9-10-12-|-12-------------|----------------|
|7------9-----10-|----------------|--------10---10-|------------10--|
|----------------|----------------|----------------|----------------|
|----------------|----------------|----------------|----------------|
|----------------|----------------|----------------|----------------|
|----------------|----------------|----------------|----------------|

Em A D D
|-9/10----9---9--|-----7---7---7--|-----5-------5--|-17-----12------|
|----------------|----------------|----------------|----------------|
|-9/11----9---9--|-----7---7---7--|-----6-------6--|----------------|
|----------------|----------------|----------------|----------------|
|----------------|----------------|----------------|----------------|
|----------------|----------------|----------------|----------------|

(Repeat chorus - same except for last four bars)

G A Bm Bm
We'll walk...
|----------------|----------------|----------------|----------------|
|-0-----------0--|-------------2--|-3--------------|-3--------------|
|---------2------|---------2------|---------4------|---------4------|
|-----0----------|-----2----------|-----4-------4--|-----4-------4--|
|----------------|-0--------------|-2--------------|-0--------------|
|-3--------------|----------------|----------------|----------------|

G A D D D/F#
we'll walk...
|----------------|----------------|----------------|-2--------------|
|-0-----------0--|-------------2--|---------3------|----------------|
|---------2------|---------2------|-----2-------2--|-----2------(2)-|
|-----0----------|-----2----------|-0--------------|-0--------------|
|----------------|-0--------------|----------------|---------4------|
|-3--------------|----------------|----------------|----------------|

Bm Bm G G
Oooo
|----------------|----------------|----------------|----------------|
|-3--------------|-3--------------|-0-----------0--|-------------0--|
|---------4------|---------4------|---------2------|---------2------|
|-----4-------4--|-----4-------4--|-----0----------|-----0----------|
|-2--------------|-0--------------|----------------|----------------|
|----------------|----------------|-3--------------|-3--------------|

D D D D
Many
|----------------|-2h3------------|-2--------------|-2--------------|
|---------3------|-----3-------3--|---------2------|----------------|
|-----2-------2--|---------2------|-----3-------3--|-----2-------2--|
|-0--------------|----------------|-0--------------|-0--------------|
|----------------|----------------|----------------|---------4------|
|----------------|----------------|----------------|----------------|

VERSE 4: (same tab as verse 1)

Bm Bm G G
(Many) years...

G A D D
Upon...
Bm Bm G D/F#
See the children...

Em A D D
As you lie...

VERSE 5: (same tab as verse 1 except last four bars)

Bm Bm G G
You'll remember...

G A D D
Among...

Bm Bm G D/F#
You can...

Em A D D
When we walked...
|----------------|----------------|---------2h3----|-2--------------|
|-0-----------3--|-------------2--|-------------3--|---------3------|
|---------0------|---------2------|-----2----------|-----2----------|
|-----0----------|-----2----------|-0--------------|-0-----------0--|
|----------------|-0--------------|----------------|----------------|
|-0--------------|----------------|----------------|---------2------|

G A Bm Bm
When we walked...
|----------------|----------------|----------------|----------------|
|-3-----------3--|-------------2--|-3--------------|-3--------------|
|---------2------|---------2------|---------4------|---------4------|
|-----0----------|-----2----------|-----4-------4--|-----4-------4--|
|----------------|-0--------------|-2--------------|-0--------------|
|-3--------------|----------------|----------------|----------------|

G A D D
When we walked...
|----------------|----------------|----------------|-2--------------|
|-0-----------0--|----------------|---------3------|---------3------|
|---------2------|----------------|-----2-------2--|-----2-------2--|
|-----0----------|----------------|-0--------------|-0--------------|
|----------------|-0--------------|----------------|----------------|
|-3--------------|----------------|----------------|----------------|

Bm Bm G G
Oooo
|----------------|----------------|----------------|----------------|
|-3--------------|-3--------------|-0-----------0--|-------------0--|
|---------4------|---------4------|---------2------|---------2------|
|-----4-------4--|-----4-------4--|-----0----------|-----0----------|
|-2--------------|-0--------------|----------------|----------------|
|----------------|----------------|-3--------------|-3--------------|

D D D D
|----------------|-2h3-----0------|----2-----------|----------------|
|---------3------|-----3----------|---3------------|----------------|
|-----2-------2--|-------------2--|--2-------------|----------------|
|-0--------------|----------------|-0--------------|----------------|
|----------------|----------------|----------------|----------------|
|----------------|----------------|----------------|----------------|

GuitareTab.com 2016