Born For You

(David Pomeranz)

Tabs written and arranged by Edwin-E (in YouTube)
Blog: http://guitarplucking.blogspot.com
Facebook Page: http://facebook.com/EdwinEGuitar

C-key (No Capo)

Intro: C-F-G-C-F-G

E|--0--------------------------0--0--1--0-----------------------------|
B|--1--------3--------1--1--3-----1--------1--------------------------|
G|--------0--------0--0-----------2-----------0--0--0--0-----------0--|
D|-----2--------2-----------------3-----------------------3--2--3--2--|
A|--3-----------------3--------------------------------------------3--|
E|--------------------------------------------3-----------------------|

E|--0--------------------------0--0--1--0-----3--1--|
B|--1--------3--------1--1--3-----1--------1--0--0--|
G|--------0--------0--0-----------2--------------0--|
D|-----2--------2-----------------3-----------------|
A|--------------------3-----------------------------|
E|--------------------------------------------3-----|

Verse I:

E|-----------------------|
B|--1--1--1--1--1--1--3--|
G|--0--0--0--0--0--0--0--|
D|-----------------------|
A|--3--------------3-----|
E|-----------------------|
C
Too many billion people

E|-----------------------|
B|--1--1--1--1--1--1--3--|
G|--2--2--2--2--2--2--2--|
D|--3--------------3-----|
A|-----------------------|
E|-----------------------|
F
Running around the planet

E|-----------------------|
B|--1--1--1--1--1--1--3--|
G|--0--0--0--0--0--0--0--|
D|-----------------------|
A|--3--------------3-----|
E|-----------------------|
C
What is the chance in heaven

E|--------0--1--0--------|
B|--1--3--1--------1-----|
G|--------2-----------2--|
D|--------3-----------3--|
A|-----------------------|
E|-----------------------|
FM7
That you'd find your way to me?

E|-----------------------------| B|--------0--0--0--0--0--0--1--| G|--0--2--0--0--0--0--0--2--2--| D|-----------------------------| A|-----------------------0-----| E|--------3--------------------| G Am Tell me what is the sweet sensation? E|-------------------------| B|--1p0-----------------1--| G|-------2--0--0-----0-----| D|-------0--------3-----2--| A|-------------------3-----| E|-------------------------| Dm C It's a miracle that's happened E|-----------------------------| B|--------0--0--0--0--0--0--1--| G|--0--2--0--0--0--0--0--2--2--| D|-----------------------------| A|-----------------------0-----| E|--------3--------------------| G Am Though I search for an explanation E|----------------------------------| B|--1p0--------1--3--3-----------3--| G|-------2--2--------0--------0-----| D|-------0-----------------0--------| A|-------------------2--2-----------| E|-------------------3--------------| Dm G – G7 Only one thing it could be Chorus: E|-----0--1--3-----------------| B|--3--------1--1--1--------1--| G|-----------2--2--2-----2-----| D|-----------3--------3--------| A|-----------------------------| E|-----------------------------| FM7 That I was born for you E|--------------0--0--| B|--1--3--3--3-----1--| G|-----0--0--0-----0--| D|-----------------2--| A|-----------------3--| E|-----3--------------| G C It was written in the stars .

E|--------0--------1--0--------0--| B|-----1-----3--1--1-----3--0--1--| G|--2--0-----------2-----0--------| D|-----------------3--------------| A|-----3-----------------------3--| E|-----------------------3--------| C F G C I bless the day that I was born for you .E|--0--1--3--3-----------------| B|-----------1--1--1--------1--| G|-----------2--2--2-----2-----| D|-----------3--------3--------| A|-----------------------------| E|-----------------------------| FM7 Yes. I was born for you E|--------------3--0--| B|--1--3--3--3-----1--| G|-----0--0--0-----0--| D|-----------------2--| A|-----------------3--| E|-----3--------------| G C And the choice was never ours E|--0--------------3--1--0--0--------| B|-----3--1--0-----------------3--3--| G|--------------2--------------------| D|--------------3-----------3--------| A|-----------------------------------| E|-----------------------------------| FM7 It's as if the powers of the universe E|-----0--1--0--------------| B|--1--1--------3--1-----1--| G|--------------------2-----| D|-----------------0--------| A|-----3--------------------| E|--------------------------| C D7 Conspired to make you mine E|--------0--0--0-----| B|-----1--1--1-----3--| G|--2--0-----------0--| D|--------------------| A|-----3--------------| E|-----------------3--| C G And till the day I die.

E|--------------------------0--0--1--0-----3--1-- B|--------3--------1--1--3-----1--------1--0--0--| G|-----0--------0--0-----------2--------------0--| D|--2--------2-----------------3-----------------| A|-----------------3-----------------------------| E|-----------------------------------------3-----| C-F-G Verse II: (Follow chords and tabs from Verse I and Chorus) Too many foolish people Trying to come between us None of them seem to matter When I look into your eyes Now I know why I belong here In your arms I found the answer Somehow nothing would seem so wrong here If they'd only realize Chorus I: Glad I was born for you And that you were born for me And in this random world This was clearly meant to be What we have the world could never understand Or ever take away And till the day I die I bless the day that I was born for you Instrumental: C-F-G-C-F-G Outro: E|--0--------------3--1--0--0--------| B|-----3--1--0-----------------3--3--| G|--------------2--------------------| D|--------------3-----------3--------| A|-----------------------------------| E|-----------------------------------| FM7 What we have the world could never understand E|-----0--1--0--------------| B|--1--1--------3--1-----1--| G|--------------------2-----| D|-----------------0--------| A|-----3--------------------| E|--------------------------| C D7 Or ever take away E|--------0--0--0-----| B|-----1--1--1-----3--| G|--2--0-----------0--| D|--------------------| A|-----3--------------| E|-----------------3--| C G And as the years go by .

E|--------0-----1--| B|-----------3--1--| G|--0--0--------2--| D|--------------3--| A|-----3-----------| E|-----------------| C F Until the day I die E|--------0--------1--0--------------------0--| B|-----1-----3--1--1-----3--0--1--------1-----| G|--2--0-----------2-----0-----0-----0--------| D|-----------------3--------------2-----------| A|-----3-----------------------3--------------| E|-----------------------3--------------------| C F G C I bless the day that I was born for you .