You are on page 1of 22

Intro

~~~~~~~~~ ~~~~~~~~~~
||---------------------------------|---------------------------------||
||---------------------------------|---------------------------------||
||-----------------0---------------|----------------0----------------||
||-----------7---------------------|---------4-----------------------||
||---------------------------------|---------------------------------||
||---0-----------------------------|---0-----------------------------||

~~~~~~~~~
||---------------------------------|---------------------------------||
||---------------------------------|-----------------------------0---||
||----------------0----------------|-----------0------------2--------||
||---------------------------------|-------------------0-------------||
||--------4------------------------|-------3-------------------------||
||---0-----------------------------|--0------------------------------||

~~~~~~~~~ ~~~~~~~~~~
||---------------------------------|---------------------------------||
||---------------------------------|---------------------------------||
||-----------------0---------------|----------------0----------------||
||-----------7---------------------|---------4-----------------------||
||---------------------------------|---------------------------------||
||---0-----------------------------|---0-----------------------------||

~~~~~~~~~
||---------------------------------|---------------------------------||
||---------------------------------|-----------------------------0---||
||----------------0----------------|-----------0------------2--------||
||---------------------------------|---------------------------------||
||---------4-----------------------|-------3-------------------------||
||---0-----------------------------|--0-----------------1------------||

||----------------------0-----------|---------------------0------------||
||----------------------------0-----|---------------------------0------||
||-------------0--------------------|------------0---------------------||
||-------7--------------------------|---------4------------------------||
||----------------------------------|----------------------------------||
||---0-------------0----------------|---0------------0-----------------||

||--------------------0-------------|---------------------------------||
||--------------------------0-------|-----------------------------0---||
||-----------0----------------------|-----------0------------2--------||
||-------4--------------------------|-------------------0-------------||
||----------------------------------|-------3-------------------------||
||---0------------0-----------------|--0------------------------------||

||--------------------0-------------|---------------------0------------||
||--------------------------0-------|---------------------------0------||
||----------0-----------------------|-----------0----------------------||
||-------7--------------------------|-------4--------------------------||
||----------------------------------|----------------------------------||
||---0---------0--------------------|---0------------0-----------------||
||--------------------0-------------|----------------------------------||
||--------------------------0-------|-----------------------------0----||
||-----------0----------------------|-----------0------------2---------||
||----------------------------------|----------------------------------||
||-------4--------------------------|-------3--------------------------||
||---0----------0-------------------|--0-----------------1-------------||

Guitars 1&2

~~~~~~~~~~ ~~~~~~~~~~
~~~~~~
||---------------------------------|-----------------------------|---------
---------------|
||---------------------------------|-----------------------------|---------
---------------|
||-------------0-------------------|-------------
0---------------|-------------0----------|
||-------7-------------------------|--------
4--------------------|------------------------|
||---------------------------------|-----------------------------|---------
4--------------|
||--0------------------------------|---0-------------------------|----
0-------------------|

Guitar 3

||--0------------------------------|--0--------------------------|--
0---------------------|
||--0------------------------------|--0--------------------------|--
0---------------------|
||--9------------------------------|--9--------------------------|--
9---------------------|
||--9------------------------------|--9--------------------------|--
9---------------------|
||--7------------------------------|--7--------------------------|--
7---------------------|
||--0------------------------------|--0--------------------------|--
0---------------------|

1.-------------------------------| 2.-------------------------------|

||---------------------------------|-----------------------------------||
||---------------------------0-----|--------------------------------0--||
||------------0---------2----------|---------------0------------2------||
||-------------------0-------------|-----------------------------------||
||-------3-------------------------|---------3-------------------------||
||---0-----------------------------|---0------------------1------------||

1.-------------------------------| 2.-------------------------------|
||--0------------------------------|--0--------------------------------||
||--0------------------------------|--0--------------------------------||
||--9\-----5-------7-----7---------|--9\-----5-------------------------||
||--9\-----5-------7-----7---------|--9\-----5-----------3-----3-------||
||--7\-----3-------5-----5---------|--7\-----3-----------3-----3-------||
||--0------------------------------|--0------------------1-----1-------||

||---------------------------------|---------------------------------||
||---------------------------------|---------------------------------||
||---------------------------------|---------------------------------||
||-------------7\\5---2--2--2--2---|-----------4\\5-----2--2--2--2---||
||-------------7\\5---2--2--2--2---|-----------4\\5-----2--2--2--2---||
||---0--0--0----------0--0--0--0---|--0--0--0-----------0--0--0--0---||

1.-----------------------------|

||---------------------------------|---------------------------------||
||---------------------------------|---------------------------------||
||---------------------------------|---------------------------------||
||-------------6--5---2--2--2--2---|-----------4\\\5----------7------||
||-------------4--5---2--2--2--2---|-----------2\\\3----------5------||
||---0--0--0----------0--0--0--0---|--0--0--0--2\\\3---0--0---5------||

2.-----------------------------|

|---------------------------------||
|---------------------------------||
|---------------------------------||
|-----------4\\\5----------3------||
|-----------2\\\3----------3------||
|--0--0--0--2\\\3----0--0--1------||

||----------------------------------------|--------------------------------
-||
||----------------------------------------|--------------------------------
-||
||----------------------------------------|--------------------------------
-||
||------------7\\5---------2---------2----|----------4\\5-------2-------
2---|
||------------7\\5---------2---------2----|----------4\\5-------2-------
2---|
||--0--0--0----------0--0--0---0--0--0----|--0-0-0---------0-0--0--0-0--
0---||

1.-----------------------------|
||----------------------------------------|--------------------------------
||
||----------------------------------------|--------------------------------
||
||----------------------------------------|--------------------------------
||
||-----------6\\5----------2---------2----|---------4\\5--------2--------
2-||
||-----------4\\5----------2---------2----|---------2\\3--------2--------
2-||
||--0--0--0----------0--0--0---0--0--0----|--0-0-0--2\\3--0--0--0--0--0--
0-||

2.-----------------------------|

|--------------------------------||

|--------------------------------||

|--------------------------------||
|------------4\\5----------
3-----||
|------------4\\3----------
3-----||
|--0--0--0---2\\3---0--0---
1-----||

||--------------------------|--------------------------|-------------------
-------||
||--------------------------|--------------------------|-------------------
-------||
||--------------------------|--------------------------|-------------------
-------||
||--------------------------|--------------------------|-------------------
-------||
||--2-2---2-2---2-2---2-2---|--2-2---2-2---2-2---2-2---|--2-2---2-2---2-
2---2-2---||
||--0-0---0-0---0-0---0-0---|--0-0---0-0---0-0---0-0---|--0-0---0-0---0-
0---0-0---||

First verse

||---------------------------------------------|---------------------------
---------------||
||---------------------------------------------|---------------------------
---------------||
||-11-11------11-11------11-11-------11-11-----|--12-12-----12-12-----12-
12-----12-12-----||
||--9--9-------9--9-------9--9--------9--9-----|--10-10-----10-10-----10-
10-----10-10-----||
||--7--7-------7--7-------7--7--------7--7-----|---9--9------9--9------9--
9------9--9-----||
||-------0-0--------0-0---------0-0--------0-0-|--------0-0-------0-
0-------0-0-------0-0-||

||---------------------------------------------|---------------------------
------------------||
||10--10----10-10------10-10--------10-10------|--13-13------13-13------13-
13-----13-13------||
||-9--9------9--9-------9--9---------9--9------|--12-12------12-12------12-
12-----12-12------||
||-9--9------9--9-------9--9---------9--9------|--10-10------10-10------10-
10-----10-10------||
||---------------------------------------------|---------------------------
------------------||
||------0-0-------0-0--------0-0----------0-0--|---------0-0-------0-
0--------0-0-------0-0--||

||--------------------------------------|----------------------------------
--------||
||--------------------------------------|----------------------------------
--------||
||-11-11----11-11----11-11----11-11-----|-12-12-----12-12-----12-12-----12-
12------||
||--9--9-----9--9-----9--9-----9--9-----|-10-10-----10-10-----10-10-----10-
10------||
||--7--7-----7--7-----7--7-----7--7-----|--9--9------9--9------9--9------
9--9------||
||-------0-0------0-0------0-0------0-0-|-------0-0-------0-0-------0-
0-------0-0--||

||-----------------------------------------|-------------------------------
----------||
||-10-10-----10-10-----10-10-----10-10-----|-13-13-----13-
13-------------------------||
||--9--9------9--9------9--9------9--9-----|-12-12-----12-12-----12-12-----
10-10-----||
||--9--9------9--9------9--9------9--9-----|-10-10-----10-10-----10-
10------9--9-----||
||-----------------------------------------|----------------------8--
8------8--8-----||
||-------0-0-------0-0-------0-0-------0-0-|-------0-0-------0-0-------0-
0-------0-0-||

Pre-Chorus 1:

Guitar 1
||--2------------|---------3------|-----4-----------|---------------
0-------||
||-----5---------|------------3---|-------5-4h5p4---|-----------------
4-----||
||---------4-----|----5-----------|---6-----------6-|-----0h2-0---------
4---||
||---------------|--5-------------|-
6---------------|-----------------------||
||---------------|----------------|-----------------|------------
2----------||
||---------------|----------------|-----------------|-
(3)-------------------||
|| Guitar 3 | | |
||
|| | | |
||
||---------------|---3------------|-4---------------|----
3------------------||
||---8-----------|---3------------|-4---------------|----3-------
4----------||
||---9-----------|---5------------|-6---------------|----0-------
4----------||
||---9-----------|---5------------|-6---------------|----0-------
4----------||
||---7-----------|---3------------|-4---------------|------------
2----------||
||---0-----------|---3------------|-4---------------|----
3------------------||

||---------------------|---------------------|-------
4---------------|--------------0-------||
||------------8--------|-------------8----8--|----------5--
4h6p4-----|----------------4-----||
||--------11------11---|---------11----11----|-----6--------------
6--|-------0--------------||
||------9--------------|------12-------------|---6-------------------|-----
7-----4----------||
||----7----------------|---10----------------|-4---------------------|---
5-----2------------||
||--0------------------|-8-------------------|-----------------------|-
3--------------------||
||
||
||--------------------|---3------------------|-----4-----------------|----
3-----------------||
||---8----------------|---3------------------|-----4-----------------|----
0----------4------||
||---9----------------|---5------------------|-----6-----------------|----
0----------4------||
||---9----------------|---5------------------|-----6-----------------|----
0----------4------||
||---7----------------|---3------------------|-----
4-----------------|---------------2------||
||---0----------------|---3------------------|-----4-----------------|----
3-----------------||

Synth Solo

Guitar 4:(Synth solo arranged for guitar)


||-------7---------7--------7------|-------8---------8---------8-----||
||---5-----5-7-5-------7-5----5----|-7-5-------7-5-------7-5-----5---||
||-4---4---------4---4----4-----4--|-----5---5-----5---5-----5-----5-||
||---------------------------------|---------------------------------||
||---------------------------------|---------------------------------||
||---------------------------------|---------------------------------||
||
||Guitar 3
||---------------------------------|---------------------------------||
||---------------------------------|---------------------------------||
||---------------------------------|---------------------------------||
||---------------------------------|-7-7-7-7-7-7-7-7-7-7-7-7-7-7-7-7-||
||-2-2-2-2-2-2-2-2-2-2-2-2-2-2-2-2-|-5-5-5-5-5-5-5-5-5-5-5-5-5-5-5-5-||
||-0-0-0-0-0-0-0-0-0-0-0-0-0-0-0-0-|-5-5-5-5-5-5-5-5-5-5-5-5-5-5-5-5-||

||--------12----------12----------12------|-----------------8-----7-
7-------||
||-12-10------12-10--------12-10-----10---|-8---7-5---7-8-----7-------5-8-
7-||
||-------9--9-------9----9-------9------9-|---5-----5-----5-----
5-----------||
||----------------------------------------|--------------------------------
-||
||----------------------------------------|--------------------------------
-||
||----------------------------------------|--------------------------------
-||
||
||
||
||---------------------------------------|---------------------------------
-||
||---------------------------------------|---------------------------------
-||
||---------------------------------------|---------------------------------
-||
||-7--7--7--7--7--7--7-7-7-7-7-7-7-7-7-7-|-5-5-5-5-5-5-5-5-5-5-5-5-5-5-5-
5--||
||-4--4--4--4--4--4--4-4-4-4-4-4-4-4-4-4-|-3-3-3-3-3-3-3-3-3-3-3-3-3-3-3-
3--||
||---------------------------------------|---------------------------------
-||

||-----7---------7---------7-------|-------8---------8----------8-----||
||-5-----5-7-5-------7-5-----5-----|-7-5-------7-5-------7-5------5---||
||---4---------4---4-----4-----4---|-----5---5-----5---5-----5------5-||
||---------------------------------|----------------------------------||
||---------------------------------|----------------------------------||
||---------------------------------|----------------------------------||
||
||
||
||---------------------------------|---------------------------------||
||---------------------------------|---------------------------------||
||---------------------------------|---------------------------------||
||---------------------------------|---------------------------------||
||-2-2-2-2-2-2-2-2-2-2-2-2-2-2-2-2-|-4-4-4-4-4-4-4-4-4-4-4-4-4-4-4-4-||
||-0-0-0-0-0-0-0-0-0-0-0-0-0-0-0-0-|-2-2-2-2-2-2-2-2-2-2-2-2-2-2-2-2-||

||---------12-----------12-----------12------|------------------------
14----12-10----12-14----||
||-12-10--------12-10--------12-10------10---|---------------------------
10-------10-------10-||
||-------9----9-------9----9-------9-------9-|-12----10-9----10-
12----------------------------||
||-------------------------------------------|----10------10-------
10-------------------------||
||-------------------------------------------|-----------------------------
-------------------||
||-------------------------------------------|-----------------------------
-------------------||

||------------------------------------------|------------------------------
-------------------||
||------------------------------------------|------------------------------
-------------------||
||------------------------------------------|------------------------------
-------------------||
||-5--5--5--5--5--5--5--5--5--5-5-5-5-5-5-5-|-5--5--5--5--5--5--5--
5--------------------------||
||-4--4--4--4--4--4--4--4--4--4-4-4-4-4-4-4-|-3--3--3--3--3--3--3--3---3--
3--3--3--3--3--3--3-||
||------------------------------------------|--------------------------1--
1--1--1--1--1--1--1-||

Second Verse

PM--| G5 Palm mute next 3 bars


||---------------------------------|---------------------------------||
||---------------------------------|---------------------------------||
||---------------------------0-----|---------------------------------||
||--2------------------------0-----|---------------------------------||
||--2------------------------------|---------------------------------||
||--0---0--------------------3-----|-0-0-2-0-3-0-0-6-0-5-0-0-3-0-1-0-||

||---------------------------------|---------------------------------||
||---------------------------------|---------------------------------||
||---------------------------------|---------------------------------||
||---------------------------------|---------------------------------||
||---------------------------------|---------------------------------||
||-0-0-2-0-3-0-0-6-0-5-0-0-3-0-1-0-|-0-0-2-0-3-0-0-6-0-5-0-0-3-0-1-0-||

||---------------------------------|---------------------------------||
||---------------------------------|---------------------------------||
||---------------------------------|---------------------------------||
||---------------------------------|---------------------------------||
||---------------------------------|---------------------------------||
||-0-0-2p0-3p0-0-6p0-5p0-0-3p0-1p0-|-0-0-2p0-3p0-0-6p0-5p0-0-3p0-1p0-||

PM--------------| PM-|
||---------------------------------|---------------------------------||
||---------------------------------|---------------------------------||
||---------------------------------|-----------------------5-4-2-----||
||---------------------------------|-----------------5-4-2-----------||
||---------------------------------|-----------3-2-0-----------------||
||-0-0-2p0-3p0-0-6p0-5p0-0-3p0-1p0-|-0-2-3-2-0-------------------3-1-||

Pre-Chorus 2:

PM-----| PM----------------------| PM--------------|


||-----------------------------------|------------------------------------|
|
||-----------------------------------|------------------------------------|
|
||-----------------------------------|------------------------------------|
|
||-----------------------------------|------------------------------------|
|
||---------2-3-2h3p2---2-------------|---------3-5-3h5p3---
3--------------||
||-0-2-3-5-----------5---3-5-2-5-3-2-|-0-3-5-7-----------7---5-7-3-7-5-
3--||

PM------|
PM----------------------------------------------------------------|
||-----------------------------------|-------------------------------------
------------||
||-----------------------------------|-------------------------------------
------------||
||-----------------------------------|-------------------------------------
------------||
||-----------------------------------|-------------------------------------
------------||
||---------5-7-5h7p5---5-------------|----------7-10-7h10p7-------------9-
12-9h12p9----||
||-0-5-7-9-----------9---7-9-5-9-7-5-|-0-7-8-10-------------8-0-8-10-
12-------------10-||

||--------------------------------------------------||
||--------------------------------------------------||
||--------------------------------------------------||
||--------------------------------------------------||
||------------10-12-10h12p10----10------------------||
||-0-10-12-14----------------14----12-14-1014-12-10-||

||----------------------------------------------------||
||----------------------------------------------------||
||----------------------------------------------------||
||----------------------------------------------------||
||------------12-14-12h15p12----12--------------------||
||-0-12-14-15----------------15----14-15-12-15-14-12--||

Guitar 3

||---------------------------------------------------|---------------------
---||
||---------------------------------------------------|---------------------
---||
||---------------------------------------------------|---------------------
---||
||---------------------------------------------------|---------------------
---||
||------------14-16-14h16p14----14-------------------|------------15-
15h19p15-||
||-0-14-15-17----------------17----15-17-14-17-15-14-|-0-15-17-
19-------------||
Guitar 3

|------------------------|-----------------------------------------------||
|------------------------|-----------------------------------------------||
|------------------------|-----------------------------------------------||
|--------3------2--5--4--|-----------------------------------------------||
|-----1----2--3----------|--2------------2----------2------------2----3--||
|--0---------------------|--0------0--0--0----0--0--0------0--0--0----1--||

Guitar 4
~~~~~~~~~~~~~ ~~~~~~~~~~~~~ ~~~~~~
|------------------------|-----------------------------------------------||
|------------------13-12-|----------12-13-15-------------13---12---------||
|------10--------9-------|---------------------------------------14------||
|----------9-10----------|-----------------------------------------------||
|-7-8--------------------|-----------------------------------------------||
|------------------------|-----------------------------------------------||

||-----------------------------------|--------------5---3--||
||-----------------------------------|---------10---8---3--||
||-----------------------------------|----------9---7---5--||
||-----------------------------------|--4-5-4---7---5---5--||
||--------3----------3-------------3-|--2-3-2---7---5---3--||
||--1--1--1----1--1--1----1--1--1--1-|---------------------||
||
||
~~~~~~~
||-----------------------------------------------------------------17-18-
19----||
||-----------------------------------------16-17-18-19-18-19-18-
19-------------||
||-----------------14-16-17-19-17-16-17-
19-------------------------------------||
||-17--15-14-15-
17-------------------------------------------------------------||
||-------------------------------------------------------------------------
----||
||-------------------------------------------------------------------------
----||

Guitar 3
~~~~~~~~
||--------------------------||
||--------------------------||
||-----------7--------------||
||--9-9-7-9-----9-----------||
||--------------------------||
||--------------------------||

Chorus 1:

Guitars 1&2
||--------------|-------------|------------|-----------------------||
||--------------|-------------|------------|-10-----6-------8---8--||
||-2------------|-2-----------|-2----------|--9-----5-------7---7--||
||-2------------|-2-----------|-2----------|--7-----3-------5---5--||
||-0------------|-0-----------|-0----------|--7-------------5---5--||
||--------------|-------------|------------|-----------------------||
||
|| Guitar 3
||
||--------------|-------------|------------|-----------------------||
||------3-------|----------1--|------------|-10-----6-------8---8--||
||----------5---|-------4-----|----------5-|--9-----5-------7---7--||
||--------------|-------------|------4-----|--7-----3-------5---5--||
||-0------------|-0-----------|-0----------|-----------------------||
||--------------|-------------|------------|-----------------------||

||--------------|-------------|---------------------|--------------||
||----3---------|----------1--|----------------1p0--|--1--------1--||
||-------5------|-------4-----|---------5-----------|-----------3--||
||--------------|-------------|------4------2-------|--3--------3--||
||-0--------2-3-|-3-----------|-5-------------------|-----------1--||
||--------------|-------------|---------------------|--------------||
||
||
||--------------|-------------|--------------------|---------------||
||--------------|-------------|--------------------|-----------1---||
||-2--2------5--|---5---------|--7----7----9---10--|--10-------3---||
||-2--2--5---5--|---5---------|--7----7----9---10--|--10-------3---||
||-0--0--2---3--|---3---------|--5----5----7----8--|---8-------1---||
||--------------|-------------|--------------------|---------------||

PM------------------------|
||---------------------------------|---------------------------------||
||---------------------------------|---------------------------------||
||---------------------------------|---------------------------------||
||---0h2---------------------------|---0h2---------------------------||
||---0h2--2--2--2--2--2-2-2--2-2---|---0h2--2--2--2--2--2-2-2--2-2---||
||--------0--0--0--0--0-0-0--0-0---|--------0--0--0--0--0-0-0--0-0---||

||---------------------------------|---------------------------------||
||---------------------------------|---------------------------------||
||---------------------------------|---------------------------------||
||---0h2---------------------------|---0h2---------------------------||
||---0h2--2--2--2--2--2-2-2--2-2---|---0h2--2--2--2--2--2-2-2--2-2---||
||--------0--0--0--0--0-0-0--0-0---|--------0--0--0--0--0-0-0--0-0---||

Verse 3:

~~~~ ~~~~~~~~ ~~~~~~~~~


||---------------------------------|---------------------------------||
||---------------------------------|---------------------------------||
||---------------------------------|---------------------------------||
||---------------------------------|---------------------------------||
||--------------------x---x---5----|---7p5--7----------5h7p5---------||
||--0----3----5---7----------------|--------------------------7------||

~~~~ ~~~~~~~~ ~~~~~ PM----------------|


||---------------------------------|----------------------------------||
||---------------------------------|----------------------------------||
||---------------------------------|--------------------7----------7--||
||---------------------------------|--------------------7----------7--||
||--------------------x---x---5----|---7p5--------5--5--5----5--5--5--||
||--0----3----5---7----------------|--------8-----5--5--5----5--5--5--||

~~~~ ~~~~~~~~ ~~~~ ~~trill~~


||---------------------------------|---------------------------------||
||---------------------------------|---------------------------------||
||---------------------------------|---------------------------------||
||---------------------------------|---------------------------------||
||--------------------x---x---5----|---7p5--7----------5h7p5---------||
||--0----3----5-/-7----------------|---------------------------------||

~~~~ ~~~~~~~~ ~~~~~ PM----------------|


||---------------------------------|----------------------------------||
||---------------------------------|----------------------------------||
||---------------------------------|----------------------------------||
||---------------------------------|--------------------3----------3--||
||--------------------x---x---5----|--7p5---------3--3--3----3--3--3--||
||--0----3----5-/-7----------------|-------8------1--1--1----1--1--1--||

Pre-Chorus 3:

Guitar 1
||--2------------|---------3------|-----4-----------|---------------
0-------||
||-----5---------|------------3---|-------5-4h5p4---|-----------------
4-----||
||---------4-----|----5-----------|---6-----------6-|-----0h2-0---------
4---||
||---------------|--5-------------|-
6---------------|-----------------------||
||---------------|----------------|-----------------|------------
2----------||
||---------------|----------------|-----------------|-
(3)-------------------||
||Guitar 3 | | |
||
|| | | |
||
||---------------|---3------------|-4---------------|----
3------------------||
||---8-----------|---3------------|-4---------------|----3-------
4----------||
||---9-----------|---5------------|-6---------------|----0-------
4----------||
||---9-----------|---5------------|-6---------------|----0-------
4----------||
||---7-----------|---3------------|-4---------------|------------
2----------||
||---0-----------|---3------------|-4---------------|----
3------------------||
||---------------------|---------------------|-------
4---------------|--------------0-------||
||------------8--------|-------------8----8--|----------5--
4h6p4-----|----------------4-----||
||--------11------11---|---------11----11----|-----6--------------
6--|-------0--------------||
||------9--------------|------12-------------|---6-------------------|-----
7-----4----------||
||----7----------------|---10----------------|-4---------------------|---
5-----2------------||
||--0------------------|-8-------------------|-----------------------|-
3--------------------||
||
||
||--------------------|---3------------------|-----4-----------------|----
3-----------------||
||---8----------------|---3------------------|-----4-----------------|----
3----------4------||
||---9----------------|---5------------------|-----6-----------------|----
0----------4------||
||---9----------------|---5------------------|-----6-----------------|----
0----------4------||
||---7----------------|---3------------------|-----
4-----------------|---------------2------||
||---0----------------|---3------------------|-----4-----------------|----
3-----------------||

Synth Solo 2

Guitar 3
||---------------------------------|---------------------------------||
||---------------------------------|---------------------------------||
||---------------------------------|---------------------------------||
||---------------------------------|---------------------------------||
||-2-2-2-2-2-2-2-2-2-2-2-2-2-2-2-2-|-4-4-4-4-4-4-4-4-4-4-4-4-4-4-4-4-||
||-0-0-0-0-0-0-0-0-0-0-0-0-0-0-0-0-|-2-2-2-2-2-2-2-2-2-2-2-2-2-2-2-2-||

||---------------------------------|--------------------||
||---------------------------------|--------------------||
||---------------------------------|--------------------||
||-5-5-5-5-5-5-5-5-5-5-5-5-5-5-5-5-|-5-5-5-5-5-5-5-5----||
||-4-4-4-4-4-4-4-4-4-4-4-4-4-4-4-4-|-5-5-5-5-5-5-5-5----||
||---------------------------------|--------------------||

~~~~~~~~~~ ~~~~~~~~~~ ~~~~~~~~~


|-----------------------------|--------------------------------------------
||
|--------------------13-12----|------------
15------------------------------||
|-------10-------9------------|------16-17-------------17--16--
17----------||
|----------
9h11---------------|--------------------------------------------||
|--7-
8------------------------|--------------------------------------------||
|-----------------------------|--------------------------------------------
||
|
| Guitar 3
|-----------------------------|--------------------------------------------
||
|-----------------------------|--------------------------------------------
||
|--------------------5--
4-----|--------------------------------------------||
|--------3-------
2------------|--------------------------------------------||
|-----------2-3---------------|-2------2------2----------2----
3------------||
|--0--1-----------------------|-0--0-0-0--0-0-0----0--0--0----
1------------||

~~~~~~
|----------------------------------------------------------------------17-
18-19-||
|----------------------------------------------16-17-18-19-18-17-18-
19----------||
|----------------------14-16-17-19-17-16-17-
19----------------------------------||
|-------17-15-14-15-
17----------------------------------------------------------||
|--------------------------------------------------------------------------
-----||
|--------------------------------------------------------------------------
-----||
|
|
|--------------------------------------------------------------------------
-----||
|--------------------------------------------------------------------------
-----||
|--------------------------------------------------------------------------
-----||
|--------------------------------------------------------------------------
-----||
|-------------------3---------------------3--------------------------
3----------||
|--------1-----1----1-------1------1------1-------1--------1---------
1----------||

~~~~~~~~~~~~~~~~~~~~ b+1
|---
(19)----------------------------|------------------------------------------
-||
|-----------------------------------|----------------
10-------------------------||
|-----------------------------------|-------------
7-----------------------------||
|-----------------------------------|----9-9-7-
9--------------------------------||
|-----------------------------------|--------------------------------------
-----||
|-----------------------------------|--------------------------------------
-----||
|
| ~~~~~~~~~~~~~~~
|---------------------5---------
3---|-------------------------------------------||
|------------10-------8---------
3---|-------------------------------------------||
|------------9--------7---------5---|-------------
7-----------------------------||
|--4---5-----7--------5---------5---|----9-9-7-9------
9-------------------------||
|--2---3-----7--------5---------
3---|-------------------------------------------||
|-----------------------------------|--------------------------------------
-----||

Chorus 2:

Guitars 1&2

||--------------|-------------|------------|-----------------------||
||--------------|-------------|------------|-10-----6-------8---8--||
||-2------------|-2-----------|-2----------|--9-----5-------7---7--||
||-2------------|-2-----------|-2----------|--7-----3-------5---5--||
||-0------------|-0-----------|-0----------|--7-------------5---5--||
||--------------|-------------|------------|-----------------------||
||
|| Guitar 3
||
||--------------|-------------|------------|-----------------------||
||------3-------|----------1--|------------|-10-----6-------8---8--||
||----------5---|-------4-----|----------5-|--9-----5-------7---7--||
||--------------|-------------|------4-----|--7-----3-------5---5--||
||-0------------|-0-----------|-0----------|-----------------------||
||--------------|-------------|------------|-----------------------||

||--------------|-------------|---------------------|---------------||
||----3---------|----------1--|----------------1-0--|--1------------||
||-------5------|-------4-----|---------5-----------|---------3--3--||
||--------------|-------------|------4------2-------|--3------3--3--||
||-0--------2-3-|-3-----------|-5-------------------|---------1--1--||
||--------------|-------------|---------------------|----0-0--------||
||
||
||--------------|-------------|--------------------|---------------||
||--------------|-------------|--------------------|---------------||
||-2--2------5--|---5---------|--7----7----9---10--|-10--3--3--3---||
||-2--2--5---5--|---5---------|--7----7----9---10--|-10--3--3--3---||
||-0--0--2---3--|---3---------|--5----5----7----8--|--8--1--1--1---||
||--------------|-------------|--------------------|---------------||

Keyboard solo:

Em(addA) Em(addF#)
Guitars 1&2
~~~~~~~~~ ~~~~~~~~~~
||---------------------------------|---------------------------------||
||---------------------------------|---------------------------------||
||-----------------0---------------|----------------0----------------||
||-----------7---------------------|---------4-----------------------||
||---------------------------------|---------------------------------||
||---0-----------------------------|---0-----------------------------||

Em6 C/E D6(no 3rd)


~~~~~~~~~
||---------------------------------|---------------------------------||
||---------------------------------|-----------------------------0---||
||----------------0----------------|-----------0------------2--------||
||---------------------------------|-------------------0-------------||
||---------4-----------------------|-------3-------------------------||
||---0-----------------------------|--0------------------------------||

Em (addA) Em(addF#)

||-----------------------0---------|--------------------0------------||
||----------------------------0----|---------------------------0-----||
||--------------0------------------|------------0--------------------||
||--------7------------------------|---------4-----------------------||
||---------------------------------|---------------------------------||
||---0---------------0-------------|---0------------0----------------||

Em6 C/E F+4

||-----------------------0---------|---------------------------------||
||----------------------------0----|-----------------------------0---||
||------------0--------------------|-----------0------------2--------||
||---------------------------------|---------------------------------||
||--------4------------------------|-------3-------------------------||
||---0--------------0--------------|--0-----------------1------------||

Em(addF#) D(11)/E
~~~~~~~~~~ ~~~~~~~~~~~
||------------------0--------------|-------------------0-------------||
||------------------8--------------|------------------10-------------||
||-----------------11--------------|-------------------0-------------||
||-----------9---------------------|-------------7-------------------||
||-------7-------------------------|--------9------------------------||
||----0----------------------------|----0----------------------------||

C#m7-5(addF#) Cmaj9+11

||---------------------0-----------|--------------------8------------||
||---------------------7-----------|--------------------8------------||
||---------------------0-----------|-------------------11------------||
||----------5----------------------|----------12---------------------||
||------4--------------------------|-----10--------------------------||
||---0-----------------------------|--8------------------------------||
Em(addF#) Bm7/E

||----------------------------------|----------------------------------||
||------------12-12-12-12--12-12-12-|------------15-15-15-15--15-15-15-||
||------------11-11-11-11--11-11-11-|------------14-14-14-14--14-14-14-||
||-------------9--9--9--9---9--9--9-|------------12-12-12-12--12-12-12-||
||------------10-10-10-10--10-10-10-|------------14-14-14-14--14-14-14-||
||-0---0--0-------------------------|-0---0--0-------------------------||

Go7/E F5

||----------------------------------|----------------------------------||
||------------12-12-12-12--12-12-12-|------------12-12-12-12--12-12-12-||
||-------------9--9--9--9---9--9--9-|------------12-12-12-12--12-12-12-||
||------------11-11-11-11--11-11-11-|------------10-10-10-10--10-10-10-||
||------------10-10-10-10--10-10-10-|-------------8--8--8--8---8--8--8-||
||-0---0--0-------------------------|-0---0--0-------------------------||

Guitar Solo: (rhythm slashes above played by Guitar 1)

E5 C5

b+ r ~~~~~~~ ~~~~~~~ b+ r ~~~~~ ~~~~~~~


||-------------------------------|-----------------------------||
||--7----(7)--5------------------|-7-----(7)--5----------------||
||---------------------4---------|-------------------5---------||
||-------------------------------|-----------------------------||
||-------------------------------|-----------------------------||
||-------------------------------|-----------------------------||

C#sus2 G5 B5

b+1 r ~~~~~~~ ~~~~~~ ~~~~~~~~~~


||--------------9--------10------|-
(10)p9p7--------------------------------||
||-------------------------------|----------
10p8p7-------------------------||
||--9-----(9)--------------------|-----------------
9p7p6-------------------||
||-------------------------------|-----------------------
9p7p5-------------||
||-------------------------------|-----------------------------
9-----------||
||-------------------------------|-----------------------------------------
||

E5 C5

w/bar--| w/bar-----|
b+ r ~~~~ ~~~~~~~~ b+ r ~~~~~~ ~~~~~~~~~~~~
||-14----(14)--12----------------|-14----(14)-
12---------------------------||
||-------------------12----------|--------------------
13-------------------||
||-------------------------------|-----------------------------------------
||
||-------------------------------|-----------------------------------------
||
||-------------------------------|-----------------------------------------
||
||-------------------------------|-----------------------------------------
||

C#sus2

||-16-12-16-12----12-16-12-16-12----12-17-12-17-12----12-16-12-16-12----
12--||
||-------------14----------------14----------------14-----------------
14----||
||-------------------------------------------------------------------------
-||
||-------------------------------------------------------------------------
-||
||-------------------------------------------------------------------------
-||
||-------------------------------------------------------------------------
-||

G5 B5

~~~~~~~
||-
14h15p14p12----------------------------------------------------------------
--------||
||------------15-13-12\10-
12h13p12p10-------------------------------------------------||
||-----------------------------------12p11p9\8-
9h11p9p8-------------------------------||
||------------------------------------------------------10p9p7\5-
7h9p7p5--------------||
||-----------------------------------------------------------------------
9p7p6-7------||
||-------------------------------------------------------------------------
-----------||

Guitar 1
||----------------------|--------------------|------------|----------------
-----------||
||------
7---------------|--------------------|------------|------------------------
---||
||--------7-------------|--------------7\9/7-|------------|-----------
0---------------||
||---5------------------|--------------7\9/7-|-10---9---7-|-----------
0---------------||
||-3---------0--3-2-----|----9-10---5--------|--8---8---
8-|---------------------------||
||-------------------0--|--7------
3----------|------------|---------------------------||
||--------------|-------------|------------|-----------------------||
||--------------|-------------|------------|-10-----6-------8---8--||
||-2------------|-2-----------|-2----------|--9-----5-------7---7--||
||-2------------|-2-----------|-2----------|--7-----3-------5---5--||
||-0------------|-0-----------|-0----------|--7-------------5---5--||
||--------------|-------------|------------|-----------------------||
||
||
||
||--------------|-------------|------------|-----------------------||
||------3-------|----------1--|------------|-10-----6-------8---8--||
||----------5---|-------4-----|----------5-|--9-----5-------7---7--||
||--------------|-------------|------4-----|--7-----3-------5---5--||
||-0------------|-0-----------|-0----------|-----------------------||
||--------------|-------------|------------|-----------------------||

||--------------|-------------|---------------------|----------------------
||
||----3---------|----------1--|----------------1-0--|--
1-------------------||
||-------5------|-------4-----|---------5-----------|---------3--3-----3-
3-||
||--------------|-------------|------4------2-------|--3------3--3-----3-
3-||
||-0--------2-3-|-3-----------|-5-------------------|---------1--1-----1-
1-||
||--------------|-------------|---------------------|----0-0-------0-
0-----||
||
||
||--------------|-------------|--------------------|-----------------------
||
||--------------|-------------|--------------------|-----------------------
||
||-2--2------5--|---5---------|--7----7----9---10--|-10---3--3--3----3-3-
3-||
||-2--2--5---5--|---5---------|--7----7----9---10--|-10---3--3--3----3-3-
3-||
||-0--0--2---3--|---3---------|--5----5----7----8--|--8---1--1--1----1-1-
1-||
||--------------|-------------|--------------------|-----------------------
||

Chorus 4:

PM----| PM----| PM----|


||--------------------------|-------------------------|--------------------
----||
||--------------------------|-------------------------|--------------------
----||
||--------5-4------2------2-|-------4-5------2------2-|-------4-5-----
2------2-||
||--------7-7------2------2-|-------5-5------2------2-|-------4-4-----
2------2-||
||-0-0-0-------0-0-0--0-0-0-|-0-0-0------0-0-0--0-0-0-|-0-0-0-----0-0-0--0-
0-0-||
||--------------------------|-------------------------|--------------------
----||

||--------------------------||
||--------6-------8---8-----||
||--------5-------7---7-----||
||--------3-------5---5-----||
||-0-0-0--------------------||
||--------------------------||

Guitar 4:

ub+1 ub+1 ub+1 ub+1 ub+1 ub+1 ub+1


ub+1--------|
||-5---------7-------8-----|--8-----------------|-10---------12-----13---|-
13--------------||
||-8---------10------11----|--11----------------|-13---------15-----16---|-
16--11----11----||
||-------------------------|--------------------|------------------------|-
----13----13----||
||-------------------------|--------------------|------------------------|-
----------------||
||-------------------------|--------------------|------------------------|-
----------------||
||-------------------------|--------------------|------------------------|-
----------------||

Guitar 1:

||------------------------|---------------------|-----------------------|--
----------------||
||------3-----------------|-------------1-------|--------------1---0----|-
1---------1------||
||---------5--------------|--------4------------|------
5----------------|-----------3------||
||------------------------|---------------------|---4-------------------|-
3---------3------||
||--0---------2----3------|-3-------------------|-5--------
2------------|-----------1------||
||------------------------|---------------------|-----------------------|--
----------------||

Guitar 5:

||------------------------|---------------------|-----------------------|--
----------------||
||------------------------|---------------------|-----------------------|--
----------------||
||--------7-5----------5--|-5-------------------|--7-------9---10-------|-
10----3----3-----||
||--------7-5-----5----5--|-5-------------------|--7-------9---10-------|-
10----3----3-----||
||-0-0-0------0-0-2----3--|-3-------------------|--5-------7----8-------|--
8----1----1-----||
||------------------------|---------------------|-----------------------|--
----------------||

Outro:

||------------------------|---------------------------------------||
||------Play-3-times------|---------------------Strum chord-------||
||------------------------|-----------------------^9--------------||
||-0h2--------------------|-0h2-------------------^9--------------||
||-0h2--2-2-2-2-2-2-2-2-2-|-0h2---2--2---2---2----^7--------------||
||------0-0-0-0-0-0-0-0-0-|-------0--0---0---0----^0--------------||

PM---------------------| PM--------------------|
||-------------------------------|--------------------------------||
||-------------------------------|--------------------------------||
||-------------------------------|--------------------------------||
||-0h2---------------------------|-2/3----------------------------||
||-0h2--2-2--2--2--2--2--2--2--2-|-2/3--2---2---2--2-2--2-2--2--2-||
||------0-0--0--0--0--0--0--0--0-|------0---0---0--0-0--0-0--0--0-||

PM-----------------|
||-------------------------------|--------------------------------||
||-------------------------------|--------------------------------||
||-------------------------------|--------------------------------||
||-3--4--------------------------|-4/5----------------5--------3--||
||-3--3--2---2--2-2-2-2--2-2--2--|-4/5--2--2---2--2---5--------1--||
||-------0---0--0-0-0-0--0-0--0--|------0--0---0--0---3--------1--||

PM---------------| PM-------------|
||-------------------------------|--------------------------------||
||-------------------------------|--------------------------------||
||-------------------------9-----|----------------------------10--||
||-0h2---------------------9-----|-0-0-2-3--------------------10--||
||-0h2--2--2--2--2---------7-----|-0-0-2-3--2--2--2------------8--||
||------0--0--0--0---0-0---------|----------0--0--0--0--0---------||

PM-------------|
||-------------------------------|------------------------------------||
||-------------------------------|------------------------------------||
||--------------------------11---|------------------------------------||
||-0-0-3-4------------------10---|--0-0-4-5-5--------2--5------2------||
||-0-0-3-4---2--2--2-2-------9---|--0-0-4-5-5--0--3--------0-1--------||
||-----------0--0--0-0--0-0------|-------------------------------3-1--||

PM-------------|
||-------------------------------|------------------------------------||
||-------------------------------|------------------------------------||
||---------------------------9---|------------------------------------||
||-0h2-----------------------9---|--0-0--2--3-------------------------||
||-0h2--2--2--2--2-----------7---|--0-0--2--3----2----2---------------||
||------0--0--0--0---0--0--------|---------------0----0---------------||