You are on page 1of 4

On The Wings Of Love

Jeffrey Osborne

Fingerstyle
Arranged and Tabbed by: Hiroshi Nocum
Subscribe me :D
Facebook Page: Hiroshi Nocum
https://www.facebook.com/Hiro.nocum.guitarist
Youtube Channel: Hiroshi Nocum
http://www.youtube.com/c/HiroshiNocum

Tuning: Standard
Capo: 1st Fret needed on the part of changing key ( step higher )

Intro: C9 G/B Am G (2x)

e|--0--------2--3-----------2--3-----------3--3-----------------|
B|-----3--------------3--------------1--------3-----------------|
G|--------0--------0-----0--------0-----0-----------4--2--0-----|
D|-----------------------------------------------0-----------4--|
A|--3--------3--------2--------------0--------------------------|
E|--------------------------------------------3-----------------|

e|--------------------------------------------------------------|
B|--------------------------------------------------------------|
G|--------0-----------0-----0--0--------------------------------|
D|--2--4--------0--4--------------------------------------------|
A|--3--------3--2--------3--------------------------------------|
E|-----------------------5-----3--------------------------------|

1st Verse: Em Em/D# Em/D A9/C# CM7 Bm Am D B7

Em Em/D# Em/D A9/C# CM7 Bm Am Dsus D

e|---------------------------------------------------------------|
B|-----------------0--------0-----0--------------------------0---|
G|--------------0-----2--------2-----2--0--0-----0--------0------|
D|-----------2-----------1--------------------4--------2---------|
A|-----------------------------------5--------------4------------|
E|--3--2--0------------------------------------------------------|

e|----------------------------------------2----------------------|
B|---------------------------------------------------------------|
G|--------0--------0--2/4--2--2--0--2-----2----------------------|
D|--2--4-----0--4----------------------0--1----------------------|
A|--3--------2--------0-------------------2----------------------|
E|---------------------------------------------------------------|

e|---------------------------------------------------------------|
B|-----------0--------0--0h1--0--------------------------0-------|
G|--------0-----2----------------2--0--0-----0--------0----------|
D|-----2-----------1----------------------4--------2-------------|
A|-------------------------------5--------------4----------------|
E|--0------------------------------------------------------------|

e|----------------------------------------------2--2h3-----2-----|
B|-------------------------------------------3----------3--3--x--|
G|--------0--------0--2/4--2--2--0--2-----2----------------2-----|
D|--2--4-----0--4----------------------0-------------------0--x--|
A|--3--------2--------0------------------------------------------|
E|---------------------------------------------------------------|

Chorus: G G/B C Am D Em Am Dsus D (2x)

e|--------------3--------------0-----------------------------0-----0-----------|
B|--3--1--0--3--3--0--1--3--3--------------------------3--0--x--------------0--|
G|--0--0--x-----------------0-----0--0--0--0--2--2--2-----0-----------2--0-----|
D|--------------------------2--------------------------0--------------------x--|
A|--------------2--x--------3--------x-----0--------x--------------------------|
E|--3-----x-----------------------------------------------0--x--0-----------x--|

Note: Watch my fingerstyle cover of On The Wings Of Love by Jeffrey Osborne on my Youtube Channel or on my
Facebook Page (links provided on the 1st page) for you to study these tabs in a more detailed way Kindly put a
credit or mention me if you are going to cover this song using my tabs. Thank you -Hiroshi Nocum
e|-------------------------------2h3--2-----|
B|----------------------------3----------x--|
G|--2/4--2--2--x--0--2-----2----------------|
D|----------------------0-------------0--x--|
A|--0----------x----------------------------|
E|------------------------------------------|

e|--------------3--------------0-----------------------------0-----0-----------|
B|--3--1--0--3--3--0--1--3--3--------------------------3--0--x--------------0--|
G|--0--0--x-----------------0-----0--0--0--0--2--2--2-----0-----------2--0-----|
D|--------------------------2--------------------------0--------------------x--|
A|--------------2--x--------3--------x-----0--------x--------------------------|
E|--3-----x-----------------------------------------------0--x--0-----------x--|

e|------------------------------------------0----------------------------------|
B|--0---------------------------------3--------3--x----------------------------|
G|-----2--2--0--0h2-------------0--0-------------------------------------------|
D|-------------------0--0--0h2--------x----------------------------------------|
A|--0-----x--------------------------------------------------------------------|
E|-------------------------x-------3--x--3--------x----------------------------|

2nd Verse:

e|---------------------------------------------------------------|
B|-----------------0--------0-----0--------------------------0---|
G|--------------0-----2--------2-----2--0--0-----0--------0------|
D|-----------2-----------1-----------------x--4--------2---------|
A|-----------------------------x-----5--------------4-----x------|
E|--3--2--0-----x------------------------------------------------|

e|----------------------------------------------2----------------|
B|---------------------------------------------------------------|
G|--------x--0--------x--0--2/4--2--2--0--2-----x----------------|
D|--2--4--------0--4-------------------------0--1----------------|
A|--3-----x-----2-----x-----0----------x--------x----------------|
E|---------------------------------------------------------------|

e|---------------------------------------------------------------|
B|-----------0--------0--0h1--0--------------------------0-------|
G|--------0-----2----------------2--0--0-----0--------0----------|
D|-----2-----------1-----x-------------x--4--------2-------------|
A|-------------------------------5--------------4-----x----------|
E|--0-----x------------------------------------------------------|

e|---------------------------------------------------------------|
B|---------------------------------------------------------------|
G|--------x--0--------x--0--2/4--2--2--0--2--x-------------------|
D|--2--4--------0--4----------------------0--x-------------------|
A|--3-----x-----2-----x-----0----------x-------------------------|
E|---------------------------------------------------------------|

Chorus: G G/B C Am D Em Am Dsus D (2x)

e|--------------3--------------0-----------------------------0-----0-----------|
B|--3--1--0--3--3--0--1--3--3--------------------------3--0--x--------------0--|
G|--0--0--x-----------------0-----0--0--0--0--2--2--2-----0-----------2--0-----|
D|--------------------------2--------------------------0--------------------x--|
A|--------------2--x--------3--------x-----0--------x--------------------------|
E|--3-----x-----------------------------------------------0--x--0-----------x--|

e|-------------------------------2h3--2-----|
B|----------------------------3----------x--|
G|--2/4--2--2--x--0--2-----2----------------|
D|----------------------0-------------0--x--|
A|--0----------x----------------------------|
E|------------------------------------------|

e|--------------3--------------0-----------------------------0-----0-----------|
B|--3--1--0--3--3--0--1--3--3--------------------------3--0--x--------------0--|
G|--0--0--x-----------------0-----0--0--0--0--2--2--2-----0-----------2--0-----|
D|--------------------------2--------------------------0--------------------x--|
A|--------------2--x--------3--------x-----0--------x--------------------------|
E|--3-----x-----------------------------------------------0--x--0-----------x--|

e|------------------------------------------0----------------------------------|
B|--0---------------------------------3--------3--x----------------------------|
G|-----2--2--0--0h2-------------0--0-------------------------------------------|
D|-------------------0--0--0h2--------x----------------------------------------|
A|--0-----x--------------------------------------------------------------------|
E|-------------------------x-------3--x--3--------x----------------------------|

Note: Watch my fingerstyle cover of On The Wings Of Love by Jeffrey Osborne on my Youtube Channel or on my
Facebook Page (links provided on the 1st page) for you to study these tabs in a more detailed way Kindly put a
credit or mention me if you are going to cover this song using my tabs. Thank you -Hiroshi Nocum
Bridge: C9 Bm Am G (2x) Am D

e|--------------3--2--3--2-----3--------------3--2--3--2-----3-----0-----0--0-----------|
B|--------3--------3-----3--x-----3-----3--------3-----3--x-----3-----x--------3--1--3--|
G|--------0--x--------------------------0--x--------------------------------------0-----|
D|-----------------3-----3--x-----------------------------------------------------------|
A|--0--3-----x-----------------------2-----x-----2-----2--x--------0--x-----0-----------|
E|--------------------------------------------------------------------------------------|

e|--0----------------|--------------3--2--3--2-----3--------------3--2--3--2-----3------|
B|-----3-----1h3--3--|--------3--------3-----3--x-----3-----3--------3-----3--x-----3---|
G|-------------------|--------0--x--------------------------0--x------------------------|
D|-----x----------x--|-----------------3-----3--x---------------------------------------|
A|-------------------|--0--3-----x-----------------------2-----x-----2-----2--x---------|
E|--3--x--3--3----x--|------------------------------------------------------------------|

e|--0--2-----3-----2-----3--5/7--5--5--3--3h5--------5-----5/6--|
B|--------x-----3-----x---------------------------3-----3--3/4--|
G|--------------------------------------------------------------|
D|---------------------------------------------0----------------|
A|--0-----x--0--------------0-------x---------------------------|
E|--------------3-----x--3--------------------------------------|

Chorus: Capo 1st Fret (change key 1/2 step higher)

e|--------------3--------------0-----------------------------0-----0-----------|
B|--3--1--0--3--3--0--1--3--3--------------------------3--0--x--------------0--|
G|--0--0--x-----------------0-----0--0--0--0--2--2--2-----0-----------2--0-----|
D|--------------------------2--------------------------0--------------------x--|
A|--------------2--x--------3--------x-----0--------x--------------------------|
E|--3-----x-----------------------------------------------0--x--0-----------x--|

e|-------------------------------2h3--2-----|
B|----------------------------3----------x--|
G|--2/4--2--2--x--0--2-----2----------------|
D|----------------------0-------------0--x--|
A|--0----------x----------------------------|
E|------------------------------------------|

e|--------------3--------------0-----------------------------0-----0-----------|
B|--3--1--0--3--3--0--1--3--3--------------------------3--0--x--------------0--|
G|--0--0--x-----------------0-----0--0--0--0--2--2--2-----0-----------2--0-----|
D|--------------------------2--------------------------0--------------------x--|
A|--------------2--x--------3--------x-----0--------x--------------------------|
E|--3-----x-----------------------------------------------0--x--0-----------x--|

e|-------------------------------2h3--2-----|
B|----------------------------3----------x--|
G|--2/4--2--2--x--0--2-----2----------------|
D|----------------------0-------------0--x--|
A|--0----------x----------------------------|
E|------------------------------------------|

e|--------------3--------------0-----------------------------0-----0-----------|
B|--3--1--0--3--3--0--1--3--3--------------------------3--0--x--------------0--|
G|--0--0--x-----------------0-----0--0--0--0--2--2--2-----0-----------2--0-----|
D|--------------------------2--------------------------0--------------------x--|
A|--------------2--x--------3--------x-----0--------x--------------------------|
E|--3-----x-----------------------------------------------0--x--0-----------x--|

e|-------------------------------2h3--2-----|
B|----------------------------3----------x--|
G|--2/4--2--2--x--0--2-----2----------------|
D|----------------------0-------------0--x--|
A|--0----------x----------------------------|
E|------------------------------------------|

e|--------------3--------------0-----------------------------0-----0-----------|
B|--3--1--0--3--3--0--1--3--3--------------------------3--0--x--------------0--|
G|--0--0--x-----------------0-----0--0--0--0--2--2--2-----0-----------2--0-----|
D|--------------------------2--------------------------0--------------------x--|
A|--------------2--x--------3--------x-----0--------x--------------------------|
E|--3-----x-----------------------------------------------0--x--0-----------x--|

e|------------------------------------------0----------------------------------|
B|--0---------------------------------3--------3--x----------------------------|
G|-----2--2--0--0h2-------------0--0-------------------------------------------|
D|-------------------0--0--0h2--------x----------------------------------------|
A|--0-----x--------------------------------------------------------------------|
E|-------------------------x-------3--x--3--------x----------------------------|

Note: Watch my fingerstyle cover of On The Wings Of Love by Jeffrey Osborne on my Youtube Channel or on my
Facebook Page (links provided on the 1st page) for you to study these tabs in a more detailed way Kindly put a
credit or mention me if you are going to cover this song using my tabs. Thank you -Hiroshi Nocum
Outro:

e|--0--------2--3-----------2--3-----------3--3-----------------|
B|-----3--------------3--------------1--------3-----------------|
G|--------0--------0-----0--------0-----0-----------4--2--0-----|
D|-----------------------------------------------0-----------4--|
A|--3--------3--------2--------------0--------------------------|
E|--------------------------------------------3-----------------|

e|--------------------------------------------------------------|
B|--------------------------------------------------------------|
G|--------0-----------0-----0--0--------------------------------|
D|--2--4--------0--4--------------------------------------------|
A|--3--------3--2--------3--------------------------------------|
E|-----------------------5-----3--------------------------------|

LEGENDS:

| / SLIDE UP
| h HAMMER-ON
| x MUTED NOTE/SLAP

Note: Watch my fingerstyle cover of On The Wings Of Love by Jeffrey Osborne on my Youtube Channel or on my
Facebook Page (links provided on the 1st page) for you to study these tabs in a more detailed way Kindly put a
credit or mention me if you are going to cover this song using my tabs. Thank you -Hiroshi Nocum