De Quem É a Culpa?

Marília Mendonça

Tom: G

Intro: G D5 Am7 C

1 de 3

G
E|------3--3-3-3-3-3-3-3-3-3--3/5-----|
B|------3-----------------------------|
G|------0-----------------------------|
D|------0-----------------------------|
A|------2-----------------------------|
E|-0-2--3-----------------------------|

2 de 3

D5
E|-5---2-2-2-2-2-2-2-2p0--------------|
B|-3----------------------------------|
G|-2----------------------------------|
D|-0----------------------------------|
A|------------------------------------|
E|------------------------------------|

3 de 3

Am7 C
E|-3---p0-----------------------------|
B|---1-----0h1p0------1---------------|
G|---0-----0-----2-0--0---------------|
D|---2-----2----------0h2-------------|
A|---0-----0----------3---------------|
E|------------------------------------|

Primeira Parte:

Em D/F# G
Exagerado sim
Am
Sou mais você que eu
G/B C
Sobrevivo de olhares
Em
E alguns abraços que me deu
D/F# G
E o que vai ser de mim
Am
E o meu assunto não muda
G/B C
Minha cabeça não ajuda, loucura

Segunda Parte:

Passagem:

C
E|------------------------------------|
B|-0h1p0------------------------------|
G|-0-----2-0--------------------------|
D|-2----------------------------------|
A|-0----------------------------------|
E|------------------------------------|

Em
Tortura
D
E que se dane a minha postura
Am
Se eu mudei você não viu
C
Eu só queria ter você por perto
Em
Mas você sumiu
D
É tipo vício que não tem mais cura
Am
E agora de quem é a culpa
C
A culpa é sua por ter esse sorriso
Am C
Ou a culpa é minha por me apaixonar

Por ele
Só isso

Refrão:
G
Não finja que eu não to falando
D
Com você
Am
Eu tô parado no meio da rua
C
Eu tô entrando no meio dos carros
G
Sem você a vida não continua

Não finja que eu não to falando
D
Com você
Am
Ninguém entende o que eu tô passando
G/B C
Quem é você que eu não conheço mais

Me apaixonei pelo que eu inventei

De você

Repete a Intro:

G D5 Am7 C

Repete a Segunda Parte:

Em
Mas você sumiu
D
É tipo vício que não tem mais cura
Am
E agora de quem é a culpa
C
A culpa é sua por ter esse sorriso
Am C
Ou a culpa é minha por me apaixonar

Por ele
Só isso

Refrão Final:
G
Não finja que eu não to falando
D
Com você
Am
Eu tô parado no meio da rua
C
Eu tô entrando no meio dos carros
G
Sem você a vida não continua

Não finja que eu não to falando
D
Com você
Am
Ninguém entende o que eu tô passando
G/B C
Quem é você que eu não conheço mais
G
Me apaixonei pelo que eu inventei

De você
D5
Iê iê
Am7
Iê iê
C
Me apaixonei pelo que eu inventei
G
De você

Am Am7 C D D/F# D5
1 1 1
2 3 2 2 1 2 1 2 1
4 3 3 3 2

4
Em G G/B

1 2 1 1
2 3 4 3 4