You are on page 1of 2

Song: Jump

Band: Van Halen (Eddie Van Halen, Alex Van Halen, Michael Anthony, David Lee
Roth)
Album: 1984
Tabber: Jordash - ktulu@ultra.net.au

[Intro]

G|-----------------|-----------------|-----------------|-----------------|
D|-----------------|-----------------|-----------------|-3--5---------5--|
A|-3---------------|-(3)-------------|-(3)-------------|-----------------|
E|-----------------|-----------------|-----------------|-----------------|

G|-----------------|-----------------|-----------------|-----------------|
D|---5-------------|-----------------|-----------------|-----------------|
A|-3---3-----------|-(3)-------------|-(3)-------------|-----------------|
E|-----------------|-----------------|-----------------|---1--3----3-0-3-|

[Verse/Chorus]

G|-----------------|-----------------|-----------------|-----------------|
D|o----------------|-----------------|-----------------|----------------o|
A|o3-3-3-3-3-3-3-3-|-3-3-3-3-3-3-3-3-|-3-3-3-3-3-3-3-3-|-3--------------o|
E|-----------------|-----------------|-----------------|---1---3---3-0-3-|

[Bridge]

G|-----------------|-----------------|-----------------|-----------------|
D|-----------------|-----------------|-----3-------2-0-|-----------0-2-0-|
A|-----------------|-----------------|-----------------|-----------------|
E|-5-----3------5--|-----3---5---3---|-1-------0-------|-----------------|

G|-----------------|-----------------|-----------------|-----------------|
D|-----3-------2-0-|-----------0-2-0-|-----3-------2-5-|---------3-0-----|
A|-----------------|-----------------|-----------------|-------------2---|
E|-1-------0-------|-----------------|-1-------0-------|---------------3-|

G|-----------------||
D|-----------2-----||
A|-----5-------5-2-||
E|-----------------||
[Guitar Solo]

G|-----------------|-----------------|-----------------|-----------------|
D|o----------------|-----------------|-----------------|----------------o|
A|o1---------------|-----4-----------|-1---------------|-----4----------o|
E|-----2-----------|-4---------------|-----2-----------|-4---------------|

[Keyboard Solo]

G|-----------------|-----------------|-----------------|-----------------|
D|-----------------|-----------------|-----------------|-----------------|
A|-3---------------|-3---------------|-3---------------|-3---------------|
E|-----------------|-----------------|-----------------|-----------------|

G|-----------------|-----------------|-----------------|-----------------|
D|-----------------|-----------------|-----------------|-----------------|
A|-----------------|-----------------|-----------------|-----------------|
E|-1---------------|-1---------------|-3---------------|-3---------------|

G|-----------------|-----------------|-----------------|-----------------|
D|-----------------|-----------------|-----------------|-----------------|
A|-1---------------|-1---------------|-0---------------|-0---------------|
E|-----------------|-----------------|-----------------|-----------------|

G|-----------------|-----------------|-----------------|-----------------|
D|-----------------|-----------------|-----------------|-----------------|
A|-----------------|-----------------|-----------------|-----------------|
E|-4---------------|-4---------------|-3---------------|-3---------------|

G|-----------------|-----------------||
D|-----------------|-----------------||
A|-3---------------|-3---------------||
E|-----------------|-----------------||