You are on page 1of 4

Paranoid

Black Sabbath
Composio: Bill Ward / Geezer Butler / Ozzy Osbourne / Tony Iommi

Tom: G

Intro 4x:

E|----------------------------------------------------|
B|----------------------------------------------------|
G|-7h9--7h9--7h9-------7-h9------7-h9-----------------|
D|-7h9--7h9--7h9--7-h9------7-h9----------------------|
A|----------------------------------------------------|
E|----------------------------------------------------|

Primeira Parte - Versos 1 e 2:


E5 D5 G5 D5 E5
Finished with my woman 'cause she couldn't help me with my mind
E5 D5 G5 D5 E5
People think I'm insane because I am frowning all the time

(Transio 2x:

E5 C5 D5
E|------------------------------------------|
B|------------------------------------------|
G|------------------------------------------|
D|-9------5---7-----------------------------|
A|-7------3---5-----------------------------|
E|------------------------------------------|

E5
E|------------------------------------------|
B|------------------------------------------|
G|------------------------------------------|
D|-9-9-9-9-9-9-9-9-9-9-9-9-9-9-9-9----------|
A|-7-7-7-7-7-7-7-7-7-7-7-7-7-7-7-7----------|
E|------------------------------------------|

Primeira Parte - versos 3 e 4:


E5 D5 G5 D5 E5
All day long I think of things but nothing seems to sa__tis__fy
E5 D5 G5 D5 E5
Think I'll lose my mind if I don't find something to pa__ci__fy
Segunda Parte:
E5
Can you help me?
D5 E5
Occupy my brain?
D5
Oh yeah

Primeira Parte 2x: E5 D5 G5 D5 E5

Primeira Parte - versos 5 e 6:


E5 D5 G5 D5 E5
I need someone to show me the things in life that I can't find
E5 D5 G5 D5 E5
I can't see the things that make true happiness, I must be blind

Solo:

(Parte 1)

E|----------------------------------------------------|
B|----------------------------------------------------|
G|-b12r11p7h9---9-7-9-7-------------------------------|
D|----------------------9-7-7b9r7p5-7~--5-------------|
A|----------------------------------------5-7\--------|
E|----------------------------------------------------|

(Parte 2)

E|----------------------------------------------------|
B|---------------------8-10-b12r10p8-b12r10p8-10-10---|
G|---------7/9-9-9-7/9--------------------------------|
D|-7/9-9-9--------------------------------------------|
A|----------------------------------------------------|
E|----------------------------------------------------|

E|----------------------------------------------------|
B|-8------8-------------------------------------------|
G|---9-9----9-9---------------------------------------|
D|----------------------------------------------------|
A|----------------------------------------------------|
E|----------------------------------------------------|

(Parte 3)
E|----------------------------------------------------|
B|-------15-17-17----17-17----17-20-20b22-20b22-------|
G|-14/16----------19-------19-------------------------|
D|----------------------------------------------------|
A|----------------------------------------------------|
E|----------------------------------------------------|

E|----------------------------------------------------|
B|-20b22r20p17-20p17-15-17p15-12-15p12-------17-------|
G|-------------------------------------14b16----------|
D|----------------------------------------------------|
A|----------------------------------------------------|
E|----------------------------------------------------|

E|----------------------------------------------------|
B|----------------------------------------------------|
G|-b16r14p12-14p12----14-b16r14p12~-------------------|
D|-----------------14---------------------------------|
A|----------------------------------------------------|
E|----------------------------------------------------|

(Parte 4)

E|----------------------------------------------------|
B|-10b12-10p8---8-------------------------------------|
G|------------9----9p7---7----------------------------|
D|---------------------9----7p5---5-------------5-----|
A|------------------------------7---7p5---5-5h7---7-5-|
E|--------------------------------------7-------------|

E|----------------------------------------------------|
B|----------------------------------------------------|
G|-7--------------------------------------------------|
D|-5-7---9\-------------------------------------------|
A|---5---7\-------------------------------------------|
E|----------------------------------------------------|

Primeira Parte - 2x: E5 D5 G5 D5 E5

Primeira Parte - versos 7 e 8:


E5 D5 G5 D5 E5
Make a joke and I will sigh and you will laugh and I will cry
E5 D5 G5 D5 E5
Happiness I cannot feel and love to me is so un_real
E5 D5 G5 D5 E5
And so as you hear these words telling you now of my state
E5 D5 G5 D5 E5
I tell you to enjoy life I wish I could but it's too late

Primeira Parte 2x: E5 D5 G5 D5 E5

TABs da base:

(Primeira Parte)

E5
E|------------------------------------------|
B|------------------------------------------|
G|------------------------------------------|
D|-9-9-9-9-9-9-9-9-9-9-9-9-9-9-9-9----------|
A|-7-7-7-7-7-7-7-7-7-7-7-7-7-7-7-7----------|
E|------------------------------------------|

D5 G5 D5 E5
E|------------------------------------------|
B|------------------------------------------|
G|-----------------7---------12\------------|
D|-7-7-7-7-7-7-7-7-5-7---9---12\------------|
A|-5-5-5-5-5-5-5-5---5---7------------------|
E|------------------------------------------|

(Segunda Parte):

E5 D5 E5 D5
E|------------------------------------------|
B|------------------------------------------|
G|------------------------------------------|
D|-9------7------9------7-------------------|
A|-7------5------7------5-------------------|
E|------------------------------------------|

C5 D5 E5 G5
5 1 7 1 5 1

1 4 4 4